PrimaNota.ru - самый крупный в мире бесплатный архив песенных текстов, аккордов, табулатур и нот


Panda - Estoy Mas Soloh Que Ayer Pero Menos Que Maana - таба, видео

Регистрация Запомнить меня
Войти через:  Facebook Google Twitter Vk Yandex Mail.ru

Panda - Estoy Mas Soloh Que Ayer Pero Menos Que Maana - таба, видео

Печатать
Просмотров: 119
Уроки эстрадного вокала в Санкт-Петербурге
        *****"Estoy mas soloh que ayer, pero menos que mañana"*****


     Bueno, aqui les va la cancion de Estoy mas soloh que ayer, pero menos que mañana 
el primero que la saca
     La cancion esta facil pero hay que practicarla


     Tabbed by:         "Guillotina" (Marco y Memo)
     Email: calderon2_SOAD@hotmail.com, memo_punk_loco@hotmail.com


El intro se debe tocar con los dedos

Intro:
1ra guitarra
e|---------------------------------|
B|-7-8-7-8-7-8-7-8-7-7-7-7-8-8-7-8-|
G|-x-x-x-x-x-x-x-x-x-x-x-x-x-x-x-x-|
D|-x-x-x-x-x-x-x-x-x-x-x-x-x-x-x-x-| x2
A|-7-8-7-8-x-x-x-x-x-x-x-x-x-x-x-x-|
E|---------7-8-7-8-8-8-8-8-8-8-8-8-|

Ambas guitarras:
e|-----------------------------------------------------|
B|-----------------------------------------------------|
G|-9-9-9-9------------------------------5-7-7-7-7------|
D|-9-9-9-9-9-10-10-10-10-10-5-7-7-7-7-7-5-7-7-7-7------|
A|-7-7-7-7-9-10-10-10-10-10-5-7-7-7-7-7-3-5-5-5-5------|
E|---------7-8--8--8--8--8--3-5-5-5-5-5----------------|


verso:
1ra Guitarra
e|---------------------------------|
B|-7-8-7-8-7-8-7-8-7-7-7-7-8-8-7-8-|
G|-x-x-x-x-x-x-x-x-x-x-x-x-x-x-x-x-|
D|-x-x-x-x-x-x-x-x-x-x-x-x-x-x-x-x-| x4
A|-7-8-7-8-x-x-x-x-x-x-x-x-x-x-x-x-|
E|---------7-8-7-8-8-8-8-8-8-8-8-8-|

2da Guitarra
e|-------------------------------|
B|-----12----12------13------13--|
G|-------------------------------|
D|-9-9---9-9---10-10--10-10------| x2
A|-------------------------------|
E|-------------------------------|
   . .   . .    . .    . .


Puente:
1ra Guitarra
e|-0------0--0-|
B|-1------1--3-|
G|-2------0--0-|
D|-2------2--0-|
A|-0------3--2-|
E|-------------|


Coro:
Ambas Guitarra
e|---------------------------------------------------------|
B|---------------------------------------------------------|
G|---------------44444-44444-4-55555-55555-5-22222-22222-2-|
D|-22222-22222-2-44444-44444-4-55555-55555-5-22222-22222-2-| x2
A|-22222-22222-2-22222-22222-2-33333-33333-3-00000-00000-0-|
E|-00000-00000-0-------------------------------------------|


verso:
1ra Guitarra
e|---------------------------------|
B|-7-8-7-8-7-8-7-8-7-7-7-7-8-8-7-8-|
G|-x-x-x-x-x-x-x-x-x-x-x-x-x-x-x-x-|
D|-x-x-x-x-x-x-x-x-x-x-x-x-x-x-x-x-| x4
A|-7-8-7-8-x-x-x-x-x-x-x-x-x-x-x-x-|
E|---------7-8-7-8-8-8-8-8-8-8-8-8-|

2da Guitarra
e|-------------------------------|
B|-----12----12------13------13--|
G|-------------------------------|
D|-9-9---9-9---10-10--10-10------| x2
A|-------------------------------|
E|-------------------------------|
   . .   . .    . .    . .


Puente:
1ra Guitarra
e|-0------0--0-|
B|-1------1--3-|
G|-2------0--0-|
D|-2------2--0-|
A|-0------3--2-|
E|-------------|


Coro:
Ambas Guitarra
e|---------------------------------------------------------|
B|---------------------------------------------------------|
G|---------------44444-44444-4-55555-55555-5-22222-22222-2-|
D|-22222-22222-2-44444-44444-4-55555-55555-5-22222-22222-2-| x2
A|-22222-22222-2-22222-22222-2-33333-33333-3-00000-00000-0-|
E|-00000-00000-0-------------------------------------------|


  (puente de bajo)


1ra Guitarra
e|-------------------------------|
B|-----12----12------13------13--|
G|-------------------------------|
D|-9-9---9-9---10-10--10-10------| x4
A|-------------------------------|
E|-------------------------------|
   . .   . .    . .    . .

Coro:
Ambas Guitarra
e|---------------------------------------------------------|
B|---------------------------------------------------------|
G|---------------44444-44444-4-55555-55555-5-22222-22222-2-|
D|-22222-22222-2-44444-44444-4-55555-55555-5-22222-22222-2-| x4
A|-22222-22222-2-22222-22222-2-33333-33333-3-00000-00000-0-|
E|-00000-00000-0-------------------------------------------|

    Esto es todo, saludos allá a tijuana a la secundaria tecnica 29º
menos a la "ZOMBIE" que toda la escuela la odia jajaja

    Nosotros somos "Guillotina" tocamos rock/metal alternativo por si
quieren mas informacion de nosotros visita  www.universal.t83.net
Добавлено: 01.03.2012
Другие материалы по этой песне:
  • Аккорды и текст

Страница создана 01.03.2012
http://primanota.ru/panda/estoy-mas-soloh-que-ayer-pero-menos-que-maana-chords.htm
Привет, Гость.
Предлагаем пройти революционный курс по гитаре.
Подарок от PrimaNota.Ru, забирай!