PrimaNota.ru - самый крупный в мире бесплатный архив песенных текстов, аккордов, табулатур и нот


Paddy And The Rats - Pilgrim On The Road - таба, видео

Регистрация Запомнить меня
Войти через:  Facebook Google Twitter Vk Yandex Mail.ru

Paddy And The Rats - Pilgrim On The Road - таба, видео

Печатать
Просмотров: 225
---------------------------------------------------------------------------------------
                       Paddy and The Rats - Pilgrim on The Road
---------------------------------------------------------------------------------------
Tabbed by: balu100

E-mail: gejdfr@gmail.com

Tuning: E std

This is my first tab!
Enjoy, and Rate please! :)

INTRO I (Dm-C-Dm-G-Dm-C-Bb-Am) you can play with power chords or the chord note-by-note
   Dm    C   Dm    G   Dm    C   Bb   Am   Dm    C   Dm   G    Dm    C    F    Em
e|-1-1-------1-1--3-3--1-1-----------------1-1-------1-1--3-3--1-1------------0-0----|
B|-3-3--5-5--3-3--0-0--3-3--5-5--3-3--1-1--3-3--5-5--3-3--0-0--3-3--5-5-------0-0----|
G|-2-2--5-5--2-2--0-0--2-2--5-5--3-3--2-2--2-2--5-5--2-2--0-0--2-2--5-5--2-2--0-0----|
D|-0-0--5-5--0-0--0-0--0-0--5-5--3-3--2-2--0-0--5-5--0-0--0-0--0-0--5-5--3-3--2-2----|
A|-0-0--3-3--0-0--2-2--0-0--3-3--1-1--0-0--0-0--3-3--0-0--2-2--0-0--3-3--3-3--2-2----|
E|----------------3-3-------------------------------------3-3------------1-1--0-0----|

INTRO II
    Dm   Am   Bb   C    Dm  Am    G    Am
e|-1-1-----------------1-1-------3-3---------|
B|-3-3--1-1--3-3--5-5--3-3--1-1--0-0--1-1----|
G|-2-2--2-2--3-3--5-5--2-2--2-2--0-0--2-2----|
D|-0-0--2-2--3-3--5-5--0-0--2-2--0-0--2-2----| |x2|
A|-0-0--0-0--1-1--3-3--0-0--0-0--2-2--0-0----|
E|-------------------------------3-3---------|

VERSE 
   Dm   Am    G   Dm   Dm   Am    C    F    Dm   Am    G   Am   Dm   Am    G   Dm
e|-1-1-------3-3--1-1--1-1----------------\-1-1-------3-3-------1-1-------3-3--1-1----|
B|-3-3--1-1--0-0--3-3--3-3--1-1--5-5------\-3-3--1-1--0-0--1-1--3-3--1-1--0-0--3-3----|
G|-2-2--2-2--0-0--2-2--2-2--2-2--5-5--4-4-\-2-2--2-2--0-0--2-2--2-2--2-2--0-0--2-2----|
D|-0-0--2-2--0-0--0-0--0-0--2-2--5-5--3-3-\-0-0--2-2--0-0--2-2--0-0--2-2--0-0--0-0----| |x2|
A|-0-0--0-0--2-2--0-0--0-0--0-0--3-3--3-3-\-0-0--0-0--2-2--0-0--0-0--0-0--2-2--0-0----|
E|-----------3-3----------------------1-1-\-----------3-3-----------------3-3---------|

CHORUS (with PRE and POST parts)
   Am(x20)    A#   Dm   A#   Dm   A#    F    G   Am      Dm(x36)
e|---------\-------1-1-------1-1------------3-3-------\--1-1-1-1----|
B|-1-1-1-1-\--3-3--3-3--3-3--3-3--3-3-------0-0--1-1--\--3-3-3-3----|
G|-2-2-2-2-\--3-3--2-2--3-3--2-2--3-3--4-4--0-0--2-2--\--2-2-2-2----|
D|-2-2-2-2-\--3-3--0-0--3-3--0-0--3-3--3-3--0-0--2-2--\--0-0-0-0----|
A|-0-0-0-0-\--1-1--0-0--1-1--0-0--1-1--3-3--2-2--0-0--\--0-0-0-0----|
E|---------\---------------------------1-1--3-3-------\-------------|

INTRO II
    Dm  Am    Bb   C    Dm  Am    G   Am
e|-1-1-----------------1-1-------3-3---------|
B|-3-3--1-1--3-3--5-5--3-3--1-1--0-0--1-1----|
G|-2-2--2-2--3-3--5-5--2-2--2-2--0-0--2-2----|
D|-0-0--2-2--3-3--5-5--0-0--2-2--0-0--2-2----| |x2|
A|-0-0--0-0--1-1--3-3--0-0--0-0--2-2--0-0----|
E|-------------------------------3-3---------|

VERSE 2
   Dm   Am    G   Dm   Dm   Am    C    F    Dm   Am    G   Am   Dm   Am    G   Dm
e|-1-1-------3-3--1-1--1-1----------------\-1-1-------3-3-------1-1-------3-3--1-1----|
B|-3-3--1-1--0-0--3-3--3-3--1-1--5-5------\-3-3--1-1--0-0--1-1--3-3--1-1--0-0--3-3----|
G|-2-2--2-2--0-0--2-2--2-2--2-2--5-5--4-4-\-2-2--2-2--0-0--2-2--2-2--2-2--0-0--2-2----|
D|-0-0--2-2--0-0--0-0--0-0--2-2--5-5--3-3-\-0-0--2-2--0-0--2-2--0-0--2-2--0-0--0-0----| |x2|
A|-0-0--0-0--2-2--0-0--0-0--0-0--3-3--3-3-\-0-0--0-0--2-2--0-0--0-0--0-0--2-2--0-0----|
E|-----------3-3----------------------1-1-\-----------3-3-----------------3-3---------|

CHORUS 2 (only PRE part)
   Am(x20)    A#   Dm   A#   Dm   A#    F    G   Am
e|---------\-------1-1-------1-1------------3-3---------|
B|-1-1-1-1-\--3-3--3-3--3-3--3-3--3-3-------0-0--1-1----|
G|-2-2-2-2-\--3-3--2-2--3-3--2-2--3-3--4-4--0-0--2-2----|
D|-2-2-2-2-\--3-3--0-0--3-3--0-0--3-3--3-3--0-0--2-2----|
A|-0-0-0-0-\--1-1--0-0--1-1--0-0--1-1--3-3--2-2--0-0----|
E|---------\---------------------------1-1--3-3---------|

BRIDGE
   Dm   Am   Dm    G    Dm   Am    F    C
e|-1-1-------1-1--3-3---1-1-------------------|
B|-3-3--1-1--3-3--0-0---3-3--1-1-------5-5----|
G|-2-2--2-2--2-2--0-0---2-2--2-2--4-4--5-5----|
D|-0-0--2-2--0-0--0-0---0-0--2-2--3-3--5-5----| |x2|
A|-0-0--0-0--0-0--2-2---0-0--0-0--3-3--3-3----|
E|----------------3-3-------------1-1---------|


INTERLUDE
    F   F    C   C   A#    F    G    C    F   F    C   C   A#    F    C   C
e|-----------------------------3-3----------------------------------------------|
B|----------5-5-5-5--3-3-------0-0--5-5-----------5-5-5-5--3-3-------5-5-5-5----|
G|-4-4-4-4--5-5-5-5--3-3--4-4--0-0--5-5--4-4-4-4--5-5-5-5--3-3--4-4--5-5-5-5----|
D|-3-3-3-3--5-5-5-5--3-3--3-3--0-0--5-5--3-3-3-3--5-5-5-5--3-3--3-3--5-5-5-5----|
A|-3-3-3-3--3-3-3-3--1-1--3-3--2-2--3-3--3-3-3-3--3-3-3-3--1-1--3-3--3-3-3-3----|
E|-1-1-1-1----------------1-1--3-3-------1-1-1-1----------------1-1-------------|

CHORUS 3 (with PRE and POST parts)
   Am(x20)    A#   Dm   A#   Dm   A#    F    G   Am      Am(x24)
e|---------\-------1-1-------1-1------------3-3-------\-------------|
B|-1-1-1-1-\--3-3--3-3--3-3--3-3--3-3-------0-0--1-1--\--1-1-1-1----|
G|-2-2-2-2-\--3-3--2-2--3-3--2-2--3-3--4-4--0-0--2-2--\--2-2-2-2----|
D|-2-2-2-2-\--3-3--0-0--3-3--0-0--3-3--3-3--0-0--2-2--\--2-2-2-2----|
A|-0-0-0-0-\--1-1--0-0--1-1--0-0--1-1--3-3--2-2--0-0--\--0-0-0-0----|
E|---------\---------------------------1-1--3-3-------\-------------|

OUTRO
   Dm   Am   A#    C   Dm   Am    G   Am   Dm   Am   A#   C    Dm   Am   G  C  D
e|-1-1-----------------1-1-------3-3-------1-1-----------------1-1-------3-----1----|
B|-3-3--1-1--3-3--5-5--3-3--1-1--0-0--1-1--3-3--1-1--3-3--5-5--3-3--1-1--0--5--3----|
G|-2-2--2-2--3-3--5-5--2-2--2-2--0-0--2-2--2-2--2-2--3-3--5-5--2-2--2-2--0--5--2----|
D|-0-0--2-2--3-3--5-5--0-0--2-2--0-0--2-2--0-0--2-2--3-3--5-5--0-0--2-2--0--3--0----|
A|-0-0--0-0--1-3--3-3--0-0--0-0--2-2--0-0--0-0--0-0--1-1--3-3--0-0--0-0--2--3--0----|
E|-------------------------------3-3-------------------------------------3----------|

*************************************************************************************
Добавлено: 13.10.2015
Другие материалы по этой песне:
  • Аккорды и текст

Страница создана 13.10.2015
http://primanota.ru/paddy-and-the-rats/pilgrim-on-road-chords.htm
Привет, Гость.
Предлагаем пройти революционный курс по гитаре.
Подарок от PrimaNota.Ru, забирай!