PrimaNota.ru - самый крупный в мире бесплатный архив песенных текстов, аккордов, табулатур и нот


Ozzy Osbourne - Tomorrow - текст песни, таба, видео

Регистрация Запомнить меня
Войти через:  Facebook Google Twitter Vk Yandex Mail.ru

Ozzy Osbourne - Tomorrow - текст песни, таба, видео

Печатать
Просмотров: 472
Intro:
|----------------------------------------------------------------------|
|----------------------------------------------------------------------|
|----------------------------------------------------------------------|
|----------------------------------------------------------------------|
|-3/5\3h1---1-----1-----1-----1-3/5-3-1---1-----1-----1-----1-3/5-3-1--|
|---------3---3-3---3-3---3-3-----------3---3-3---3-3---3-3------------|

|--------------------------|--------------------------------|
|--------------------------|--------------------------------|
|-----------------0--------|--------------------------------|
|---------0----------------|--------------------------------|
|---3-------3---3---/5-3-1-|---1-----1-----1-----1-3/5-3-1--|
|-1---1-1-----1------------|-3---3-3---3-3---3-3------------|

Chorus:
|---------------------|----------------------|-------------------------|
|---------------------|----------------------|-------------------------|
|----3--2--0------0---|----3--2--0-----0-----|---3--2------------------|
|-------------3/5---0-|------------3/5---3~~-|------------3------2-----|
|---------------------|-1--------------------|---------3--3------3-----|
|-3-------------------|----------------------|-1-----------------------|

|---------------------------||
|---------------------------||
|----3--2--0--------------3-||
|-------------------------3-||
|-------------------------1-||
|-3-----------3--3--1--3----||

"You dont hane to leave the lights on..."
|-----------------|-----------------------------------------|
|-----------PH----|-----------------------------------------|
|-3---------5~~~~-|-0------PH-------------------------------|
|-3---------------|-0----3-5~~--3h5p3-----------------------|
|-1---------------|-x-----------------5-4-3p1-PH------------|
|-----------------|-3-------------------------3~~~----------|
"Im so used to being blind..."
|-----------------|-----------------------------|
|-----------PH----|-------6-------8---8--~~~~---|
|-3---------5~~~--|-0-----8^-8^--10^-10^--------|
|-3---------------|-0---------------------------|
|-1---------------|-x---------------------------|
|-----------------|-3---------------------------|

"No more goodbyes or yesterday.."
|---------------|--------------------|
|---------------|--------------------|
|-------------5-|--5---0-------------|
|-10----------5-|--5---0-------3/15\-|
|--8----------7-|--6---x-------------|
|---------------|------3-------------|
"Il;l see you tomorrow..."
|-------------------------------|------------------|
|-----5^-^--3--------6^---------|------------------|
|-----5^-^--3--------------3--0-|-/15---14----12-\-|
|----------------5-5-------3--0-|---x----x-----x---|
|-3-3----------x-3-3----------x-|-/13---12----10-\-|
|-1-1-------------------------3-|------------------|repeat


INTERLUDE:
|--------------|-------------||-----------------------------|
|--------------|-----------*-||-----------------------------|
|--------------|-------------||-----------------------------|
|-------3------|-------2---*-||-------2--------go to solo---|
|----1---------|----1--------||----1------------------------|
|-3------------|-3-----------||-3---------------------------|

SOLO:
|-----------------|-----------------|-----------------------|
|-----------------|-6---------------|-6---------------------|
|-----------------|---5^~~~--5^-^p3-|---5^~~-----5^-^p3-----|
|-----------3-5p3-|-----------------|-----------------------|
|-----1-3/5-------|-----------------|-----------------------|
|-1h3-------------|-----------------|-----------------------|

|-----------------------------------|-----------------------|
|-----------------------------------|-----------------------|
|-5~~~-3~~~--3-5p3\2~~--2h3p2-------|-----------------------|
|-----------------------------3/5~~-|-----------------------|
|-----------------------------------|-----------------------|
|-----------------------------------|-0-1^-------(1)/-------|

|----------------------------------|------------------------|
|-18--------------18---------18^~~-|-18---------------------|
|---17^-^p15--------17^-^p15-------|---17^--15h17-15--------|
|------------17~~------------------|------------------------|
|----------------------------------|-------------------dive-|
|----------------------------------|-----------------0\\__//|

|-20^-^-^-^-^-^-^---20^-^-^-^-^-^-----20^-----20^-^(20)-19p18-|
|-----------------20---------------20------20-----------------|
|-------------------------------------------------------------|
|-------------------------------------------------------------|
|-------------------------------------------------------------|
|-------------------------------------------------------------|

|17h18p17p15-17~~~--17h18p17p15-17-15-15--------|
|-------------------------------------18^~~--\--|
|-----------------------------------------------|
|-----------------------------------------------|
|-----------------------------------------------|
|-----------------------------------------------|

|-------------------------------------------------------------|
|-8118--8118--8118--8118--8118--8118--8118--8118--8118--x-11^-|
|-----10----10----10----10----10----10----10----10----10------|repeat
|-------------------------------------------------------------|
|-------------------------------------------------------------|
|-------------------------------------------------------------|
1st time after above figure
|--------------------------|--------------------------------|
|--(1/2)(full)(1-1/2)------|--------------------------------|
|-7^-----^-----^--------7^-|-5^-^(5)p3-----3-5^~~~--x-------|
|--------------------------|-----------5--------------------|
|--------------------------|--------------------------dive--|
|--------------------------|--------------------------0\___-|

2nd time after avobe fig                 ||==== trills  ====||
|--------------------|-------------------|------------------|----|
|-3---6---1----------|-3--6---8----------|------------------|----|
|-5^--8^--3^---------|-5^-8^-10^-~~-/--\-|-7117-6106-595-373|-0--|
|--------------------|-------------------|------------------|----|
|-------------dive---|-------------------|------------------|----|
|-------------0\____-|-------------------|------------------|----|

Добавлено: 03.04.2012
Другие материалы по этой песне:

Страница создана 03.04.2012
http://primanota.ru/ozzy-osbourne/tomorrow-chords.htm
Привет, Гость.
Предлагаем пройти революционный курс по гитаре.
Подарок от PrimaNota.Ru, забирай!