PrimaNota.ru - самый крупный в мире бесплатный архив песенных текстов, аккордов, табулатур и нот


O.Torvald - Почуття - аккорды и текст, видео

Регистрация Запомнить меня
Войти через:  Facebook Google Twitter Vk Yandex Mail.ru

O.Torvald - Почуття - аккорды и текст, видео

Печатать
Просмотров: 1125
Почуття
O.Torvald
Вступ
1------------------
2------------------
3--9---7--6---5--
4--9---7--6---5--
5--7---5--4---3--
6------------------

далі..

1---------------------------------------------------------------------------------------------
2------5------------8---10--------5-----------8--------------------------------------------
3------4----5------7---9----------4----5----7-----7---------------------------------------
4------2----5------5---7----------2----5----5-----7---------------------------------------
5------------3---------------------------3----------5----------------------------------------
6---------------------------------------------------------------------------------------------

1-------------------------------------------------------------------------------------
2------5---------8---(10)------------5-----8---------(8---10)------------------
3------4---5-----7---(9)--(7)-------4------7---5----(7---9)-----7------------
4------2---5-----5---(7)--(7)-------2------5---5----(5---7)-----7---------------
5----------3---------------(5)-------------------3------------------5--------------
6-------------------------------------------------------------------------------------

Приспів доре не знаю але можна грати так:
1-----------------------------------------------------------------------------------
2----------------------------------------------------------------------------------
3-----5---7---9--7----5---7--9--7----5--4---5-----7----------------------------
4-----5---7---9--7----5---7--9--7----5--4---5-----7--------------------------
5-----3---5---7--5----3---5--7--5----3--2---3-----5------------------------------
6----------------------------------------------------------------------------------
далі поврот куплет, приспів, і це:
1--------------------------------------------------------------------------------
2--------7----10----------8----------------7-----10--8------------------------
3--------6----9-----9-----7--(3 рази)---6-----9---7------------------------------
4--------4----7-----9-----5---------------4-----7---5--------------------------------------
5--------------------7-------------------------------------------------------------
6------------------------------------------------------------------------------------

некст:
1---------------------------------------------------------------------------
2---------------------------------7-7-7--8-8-----------------------------------------
3--5-5-5--7-7-7-7-7--9-9-9---6-6-6--7-7----5----7-----5---4---5---7--------------
4--5-5-5--7-7-7-7-7--9-9-9---4-4-4--5-5----5----7-----5---4---5---7---
5--3-3-3--5-5-5-5-5--7-7-7-------------------3----5-----3----2---3---5---------------
6---------------------------------------------------------------------------
і тут повторюється Вступ. ВСе :)

Вступ
мотив 1
E5. D5. C#5. C5.
Мотив 2
Dsus2. Csus2. C5.Csus2. Dsus2

E5              C5
Розповім тобі про те чого не зупинити,
Csus2                Dsus2
Ним не володіти, так важко пояснити.
Холодно мені та холодно без нього,
На жаль ним керує втома.
 Мотив 2
Всім, хто розуміє всю силу бажання
Я розповідаю про кохання, вам вітання.
Силу почуттів я зараз відчуваю,
Вбий мене, скажи, що я кохаю!

Приспів:
Csus2
Почуття з весною в серці
Dsus2
Може легко тебе вбити,
E5
Я тебе кохаю -
D5
Цього не зупинити!
Почуття, що не згасає
Легко вбити тебе може,
Ти навіть не помітиш,
Я без тебе не можу, я...

Так боляче стояти, відчувати,
Як згасає почуття між нами,
Швидко помирає.
Так солодко здається,
Що все мені наснилось,
Твоє, кохана, серце зупинилось.
Я відчуваю смуток і він стає сильнішим,
Не можу уявити тебе з іншим, повільніше
Надіюся тебе ніколи не побачу,
Одного разу я тебе пробачу.

Приспів. (2)

D. Dsus2
C5 Csus2
Добавлено: 11.09.2013
Другие материалы по этой песне:
  • Аккорды и текст

Страница создана 11.09.2013
http://primanota.ru/otorvald/pochuttya-chords.htm
Привет, Гость.
Предлагаем пройти революционный курс по гитаре.
Подарок от PrimaNota.Ru, забирай!