PrimaNota.ru - самый крупный в мире бесплатный архив песенных текстов, аккордов, табулатур и нот


Otep - Bloodpig - текст песни, таба, видео

Регистрация Запомнить меня
Войти через:  Facebook Google Twitter Vk Yandex Mail.ru

Otep - Bloodpig - текст песни, таба, видео

Печатать
Просмотров: 113
Уроки эстрадного вокала в Санкт-Петербурге
Otep-Blood Pig

e-|-----------------------------------------------------------------
b|-----------------------------------------------------------------
g|-----------------------------------------------------------------
d|-----------------------------------------------------------------
a|----4-3-3---6-5-5---7-6-6---8-7-7---x-x--x-x---------------------
D|---4-3-3---6-5-5---7-6-6---8-7-7---6-5--4-3----------------------


e---------------------------------------------------------------------
b---------------------------------------------------------------------
g---------------------------------------------------------------------
d---------------------------------------------------------------------
a----0-2-3-2----0-2-3-2--|       |--2-2-3-2---0-2-3-2--|       |------
D---0-2-3-2----0-2-3-2--|        |--0-2-3-2---0-2-3-2--|       |------



e--------------------------------------------------------------------------
b--------------------------------------------------------------------------
g--------------------------------------------------------------------------
d--------------------------------------------------------------------------
a--------------------------------------------------------------------------
D---0-2-3-0-3-4-0--2-3-0-3-4-0--|0-2-0-2|--0-2-3-0-3-4-0-------------------
(Palm mute)


e-----------------------------------------------------------------------
b-----------------------------------------------------------------------
g-----------------------------------------------------------------------
d---0-2-3-0-3-4-0--0-2-3-0-3-4-0-2-3-x-x-x-x-x-x-x----------------------
a---0-2-3-0-3-4-0--0-2-3-0-3-4-0-2-3-0-3-4-4-4--------------------------
D--0-2-3-0-3-4-0--0-2-3-0-3-4-0-2-3-0-3-4-4-4---------------------------


e--------------------------------------------------------------------------
b--------------------------------------------------------------------------
g--------------------------------------------------------------------------
d--0-2-3-0-3-4-0-2-3-0-3-4--0-2-0-2--0-2-3-0-3-4-0-2-3-0-3-4-0-2-3-0-3-4---
a--0-2-3-0-3-4-0-2-3-0-3-4--0-2-0-2--0-2-3-0-3-4-0-2-3-0-3-4-0-2-3-0-3-4---
D--0-2-3-0-3-4-0-2-3-0-3-4--0-2-0-2--0-2-3-0-3-4-0-2-3-0-3-4-0-2-3-0-3-4---


e--------------------------------------------------------------------------
b--------------------------------------------------------------------------
g-------------------------------------------------------------------------
d----0-2-3-2----0-2-3-2---9-9-9-------------------------------------------
a----0-2-3-2----0-2-3-2---9-9-9------------------------------------------
D --0-2-3-2----0-2-3-2---9-9-9-------------------------------------------


e--------------------------------------------------------------------------
b--------------------------------------------------------------------------
g--------------------------------------------------------------------------
d--------------------------------------------------------------------------
a----------5---------3---------2---------3---------------------------------
D-0-2-3----0-2-3----0-2-3----0-2-3-----------------------------------------

e-------------5--4----------------5--4---------------------------------------
b----------------------------------------------------------------------------
g----------------------------------------------------------------------------
d-------3---------------------3----------------------------------------------
a----3----------------------3------------------------------------------------
D----------------------------------------------------------------------------


e-----5----------5--------5----------------5----------5----------------------
b--------4----------4--------4---------------4-----------4-------------------
g----------------------------------------------------------------------------
d----------------------------------------------------------------------------
a----------------------------------------------------------------------------
D----------------------------------x-x-x--------x-x--------------------------



e--------------------------------------------------------------------------
b--------------------------------------------------------------------------
g--------------------------------------------------------------------------
d--------------------------------------------------------------------------
a--------------------------------------------------------------------------
D----33333333333333-5555555555555555-222222222222--5555555555--------------


e------------------------------------------------------------------------
b------------------------------------------------------------------------
g------------------------------------------------------------------------
d----0-2-3-2----0-2-3-2---9-9-9------------------------------------------
a----0-2-3-2----0-2-3-2---9-9-9------------------------------------------
D ---0-2-3-2----0-2-3-2---9-9-9-------------------------------------------

_________________________________________________________________
     
Добавлено: 16.11.2013
Другие материалы по этой песне:

Страница создана 29.05.2012
http://primanota.ru/otep/bloodpig-chords.htm
Привет, Гость.
Предлагаем пройти революционный курс по гитаре.
Подарок от PrimaNota.Ru, забирай!