PrimaNota.ru - самый крупный в мире бесплатный архив песенных текстов, аккордов, табулатур и нот


Ostfront - Fleisch - таба, видео

Регистрация Запомнить меня
Войти через:  Facebook Google Twitter Vk Yandex Mail.ru

Ostfront - Fleisch - таба, видео

Печатать
Просмотров: 271
Artist: Ost+Front
Album: Ave Maria
Song: Fleisch
Tuning: Drop C

PM = .
/ = Slide


Intro (Guitar 1)

D----------------------------------------|
A----------------------------------------|
F-7/3----8/3------7/3--------------------|
C--------------------------4-0-1-4-000-1-|
G-5/1----6/1------5/1--------------------|
C----------------------------------------|

Intro (Guitar 2)

D----------------------------------------|
A----------------------------------------|
F----------------------------------------|
C----------------------------------------|
G----0000----0000----0000----------------|
C----0000----0000----0000----------------|
     ....    ....    ....

Intro ending (Guitar 2)

D-----------------|
A-----------------|
F-----------------| Not exact counting
C-----------------|
G-000000000000000-|
C-000000000000000-|
  ...............

Main riff

D------------------------------------|
A------------------------------------|
F------------------------------------|
C-0-0000-1-0000-0-0000---------------|
G-0-0000-1-0000-0-0000---------------|
C-0-0000-1-0000-0-0000-4-0-1-4-000-1-|
    ....   ....   ....

2:14 (Chorus)

D-----------------------------------------|
A-----------------------------------------|
F-----------------------------------------|
C-5---8---3---1---5---8---3---1--1-1/12/1-|
G-5---8---3---1---5---8---3---1--1-1/12/1-|
C-5---8---3---1---5---8---3---1--1-1/12/1-|
Добавлено: 08.07.2015
Другие материалы по этой песне:
  • Аккорды и текст

Страница создана 08.07.2015
http://primanota.ru/ostfront/fleisch-chords.htm
Привет, Гость.
Предлагаем пройти революционный курс по гитаре.
Подарок от PrimaNota.Ru, забирай!