PrimaNota.ru - самый крупный в мире бесплатный архив песенных текстов, аккордов, табулатур и нот


Oscar Isaac - Five Hundred Miles - таба, видео

Регистрация Запомнить меня
Войти через:  Facebook Google Twitter Vk Yandex Mail.ru

Oscar Isaac - Five Hundred Miles - таба, видео

Печатать
Просмотров: 233
Standard Tuning
Capo on 2nd

---3--5--7--7--5--3--7--7---|
----------------------------|
----------------------------|
----------------------------|
----------------------------|
----------------------------|

--5--3--5--7--5--3----------|
--------------------5--5----|
----------------------------|
----------------------------|
----------------------------|
----------------------------|


--3--5--7--5--3-------------|
-----------------3--3--5----|
----------------------------|
----------------------------|
----------------------------|
----------------------------|


--3-------------------------|
------8---------------------|
----------------------------|
----------------------------|
----------------------------|
----------------------------|
Добавлено: 13.12.2015
Вам также может быть интересно:
Другие материалы по этой песне:
  • Аккорды и текст

Страница создана 13.12.2015
http://primanota.ru/oscar-isaac/five-hundred-miles-chords.htm
Привет, Гость.
Предлагаем пройти революционный курс по гитаре.
Подарок от PrimaNota.Ru, забирай!