PrimaNota.ru - самый крупный в мире бесплатный архив песенных текстов, аккордов, табулатур и нот


Orgy - The Obvious - текст песни, бас-таба, видео

Регистрация Запомнить меня
Войти через:  Facebook Google Twitter Vk Yandex Mail.ru

Orgy - The Obvious - текст песни, бас-таба, видео

Печатать
Просмотров: 124
THE OBVIOUS
Orgy

Taken from the Astro America album Punk Statik Paranoia (2004)

Transcribed by: Damian Pamminger (TwitcheD_85@hotmail.com)

Tune down 1 1/2 steps (low to high: C#, F#, B, E)

*Refer to my "Fiction (Dreams In Digital)" bass tab for short note*

Fig. 1
|---------------------------------------------------------------------------|
|---------------------------------------------------------------------------|
|-4---------------------------------------------------4---------------------|
|----4--4--4--4--4--4--4--4--4--4--4--4--4--4--4-4------4--4--4--4--4--4----|
 <------------------------3x------------------------------------------------|

|----------------------|
|----------------------|
|--------2----1-1------|
|-4-4-2-----------0----|

Fig. 2
|------------------------------------------------------------------------------|
|------------------------------------------------------------------------------|
|-4---------------------------------------------------2--2--2--2--2--2--2--2---|
|----4--4--4--4--4--4--4--4--4--4--4--4--4--4--4-4-----------------------------|
 <------------------------2x---------------------------------------------------|

                                                    ending 1
|---------------------------|------------------------------------------------------|
|---------------------------|------------------------------------------------------|
|-2--2--2--2--2--2--2--2-2-|-4-----------------------------------------------------|
|---------------------------|----4--4--4--4--4--4--4--4--4--4--4--4--4--4--4-4-----|

ending 2
|-----------------------------------------------|
|-----------------------------------------------|
|-4----------------------------2----1-1---------|
|----4--4--4--4--4--4--4-4-2------------0-------|

Fig. 3
|-----------------------------------------------------------|
|-----------------------------------------------------------|
|-----------------------------------------------------------|
|-4--4--4-4-4-4--5--5--5-5-5-5--7--7--7--7--7-0-0--0--0-----|
             <--pm-->           <--pm-----------------------|
Добавлено: 21.12.2013
Другие материалы по этой песне:

Страница создана 07.03.2012
http://primanota.ru/orgy/the-obvious-chords.htm
Привет, Гость.
Предлагаем пройти революционный курс по гитаре.
Подарок от PrimaNota.Ru, забирай!