PrimaNota.ru - самый крупный в мире бесплатный архив песенных текстов, аккордов, табулатур и нот


Оргазм Нострадамуса - Мегаханыга - аккорды и текст, видео

Регистрация Запомнить меня
Войти через:  Facebook Google Twitter Vk Yandex Mail.ru

Оргазм Нострадамуса - Мегаханыга - аккорды и текст, видео

Печатать
Просмотров: 839
Мегаханыга
Оргазм Нострадамуса
intro
 1-----------------
 2-----------------
 3-----------------
 4---10-9----------      -   8  разз
 5---10-9----------
 6---8--7----------



 riff  1 

 1--------------------------------------------------
 2--------------------------------------------------
 3--------------------------------------------------
 4-------5x--------9-8-9-8--------------------------
 5-------5x--------9-8-9-8--------------------------
 6-------3x--------7-6-7-6--------------------------



  riff 2
 1-------------------------
 2-------------------------
 3-------------------------
 4----9-----7-----5--------
 5----9-----7-----5--------
 6----7-----5-----3--------

  riff 3
 1-------------------------------------------------------------
 2-------------------------------------------------------------
 3-------------------------------------------------------------
 4---7x8x6---7x8x6----7-8-6---7-8-6----7-0-7-0-7-0-7-0-5-------
 5---7x8x6---7x8x6----7-8-6---7-8-6----7-0-7-0-7-0-7-0-5-------
 6--------------------5-6-4---5-6-4----5-0-5-0-5-0-5-0-3-------



intro

Riff  1
Синька меня породила
Синька меня и убьет
Роги, вилы, топоры
Я ненавижу когда не прет
В прошлом примерный сынок
В будущем – забулдыга
Жизнь колобок-болобок
riff 2
Да! Я мегаханыга! - 4 раза


Припев:
riff 3
Деньги есть и я бухаю
Денег нет, я отдыхаю
Ла-лай-ла-ла! Ой!
Ла-лай-ла-ла! Ой!
лай- ла-ла-ла-ла-ла ОЙ!

Я – пассажир трезваков
Я – пассажир винополок
Я – возбудитель ментов
Философ подвалов, помоек
Будет в кармане пятак
Будет на кассе сотыга
Все просажу на бухло
Да! Я мегаханыга! 

Припев:

Вонь подретозная жри
Рвите похмельные глюки
Жизненный императив
К солнцу дрожащие руки
На весь ваш здоровый прогресс
Четырехмерная фига
Тотальный уделантез
Да! Я мегаханыга! 

припев:  2 раза
Добавлено: 21.03.2012
Другие материалы по этой песне:
  • Аккорды и текст

Страница создана 21.03.2012
http://primanota.ru/orgazm-nostradamusa/megaxanyga-chords.htm
Привет, Гость.
Предлагаем пройти революционный курс по гитаре.
Подарок от PrimaNota.Ru, забирай!