PrimaNota.ru - самый крупный в мире бесплатный архив песенных текстов, аккордов, табулатур и нот


One Ok Rock - 69 - таба, бас-таба, видео

Регистрация Запомнить меня
Войти через:  Facebook Google Twitter Vk Yandex Mail.ru

One Ok Rock - 69 - таба, бас-таба, видео

Печатать
Просмотров: 485
Уроки эстрадного вокала в Санкт-Петербурге
Авторы музыки: ONE OK ROCK
Авторы текста: 森田貴寛
-------------------------------------------------------------------------------
                             69 - One Ok ROck
-------------------------------------------------------------------------------
Tabbed by: Lucas13100

Tuning: Standard

************************************

| /   slide up
| \   slide down
| h   hammer-on
| p   pull-off
| ~   vibrato
| +   harmonic
| x   Mute note
| b   Bend
| pb  Pre-bend
| br  Bend release
| pbr Pre-bend release
| brb Bend release bend

************************************

Intro + Verse

e|---------------------------------------------------------------------------|
B|---------------------------------------------------------------------------|
G|---------------------------------------------------------------------------|
D|--------------------------2--------------------------------------2---------|
A|---------4------4-----------4--2~-------------4--------4-----------4--2~---|
E|---2--2-------2-------2-2------------------2-2--------2------2-2-----------|

e|---------------------------------------------------------------------------|
B|---------------------------------------------------------------------------|
G|---------------------------------------------------------------------------|
D|---------------------------------------------------------------------------|
A|---------4------4---1-1-0-1-1br-0------------------------------------------|
E|---2--2-------2------------------------------------------------------------| (repeat)

Video demonstration : https://www.youtube.com/watch?v=EVItPaKzhl4&feature=youtu.be
(Pardon the fact it's on acoustic, that I don't have a shirt and the bad quality but I thought 
it could help you guys)
Добавлено: 13.08.2014
Другие материалы по этой песне:
  • Аккорды и текст

Страница создана 22.07.2014
http://primanota.ru/one-ok-rock/69-chords.htm
Привет, Гость.
Предлагаем пройти революционный курс по гитаре.
Подарок от PrimaNota.Ru, забирай!