PrimaNota.ru - самый крупный в мире бесплатный архив песенных текстов, аккордов, табулатур и нот


Of Monsters And Men - Beneath The Skin (album) - аккорды и текст

Регистрация Запомнить меня
Войти через:  Facebook Google Twitter Vk Yandex Mail.ru

Of Monsters And Men - Beneath The Skin (album) - аккорды и текст

Печатать
Просмотров: 262
Уроки эстрадного вокала в Санкт-Петербурге
Beneath The Skin (album)
Of Monsters And Men
Of Monsters and Man - Beneath the Skin
Released: June 9, 2015
Record Company: Republic Records
Duration: 56:34

The Band:
Nanna Bryndís Hilmarsdóttir - Lead Vocals, Guitar and Piano
Ragnar Þórhallsson - Lead Vocals and Guitar
Brynjar Leifsson - Guitar
Kristján Páll Kristjánsson - Bass
Arnar Rósenkranz Hilmarsson - Drums and Percussion


Track List:

Nr. Name                           Time    Tabber
01. Crystals                       4:02    LYNX-Music
02. Human                          3:58    kaydulay
03. Hunger                         4:50    kaydulay
04. Wolves Without Teeth           3:53    kaydulay
05. Empire                         4:22    kaydulay
06. Winter Sound                   3:42    Davetran
07. Slow Life                      5:43    kaydulay
08. Organs                         4:31    kaydulay
09. Black Water                    4:13    kaydulay
10. Thousand Eyes                  4:02    NBA96
11. I Of The Storm                 4:36    kaydulay
12. We Sink                        4:23    Davetran
13. Backyard                       4:19    NBA96

___________________________________________________________________________________________________
___________________________________________________________________________________________________

01. Crystals 4:02
Tabbed By: LYNX-Music


INTRO: C


VERSE:
          C
Lost in skies of powdered gold
           F7M  
Caught in clouds of silver ropes
         C 
Showered by the empty hopes
     F7M  
As I tumble down falling fast to the ground


PRE-CHORUS
   Am             G
I know I'll wither
                 F7M  
So peel away the bark

Because nothing
                  Am
Grows when it is dark
                    G
In spite of all my fears
                     F7M  
I can see it all so clear

I see it all so clear


CHORUS:
   C
Wohoo
            G/B     Am
Cover your crystal eyes
              G                 F7M         C
And feel the tones that tremble down your spine
   C
Wohoo
            G/B     Am
Cover your crystal eyes
             G                 F7M         C
And let your colours bleed and blend with mine


VERSE:
        C
Making ways in pitch black sand
         F7M  
Feel the salt dance on my hands
         C
Raw and charcoal coloured thighs
        F7M  
Feel so cold and my skin feels so paper-thin



PRE-CHORUS:
(G)  Am             G
 I know I'll wither
                 F7M  
So peel away the bark

Because nothing
                  Am
Grows when it is dark
                    G
In spite of all my fears
                     F7M  
I can see it all so clear

I see it all so clear


CHORUS:
   C
Wohoo
            G/B     Am
Cover your crystal eyes
              G                 F7M         C
And feel the tones that tremble down your spine
   C
Wohoo
            G/B     Am
Cover your crystal eyes
             G                 F7M         C
And let your colours bleed and blend with mine


BRIDGE:
        Am                 G
But I'm OK in see-through skin
      F7M     
I forgive what is within
                     Am                 G
Because I'm in this house, I'm in this home
      F7M  
All my time

CHORUS:
   C
Wohoo
            G/B     Am
Cover your crystal eyes
              G                 F7M         C
And feel the tones that tremble down your spine
   C
Wohoo
            G/B     Am
Cover your crystal eyes
             G                 F7M         C
And let your colours bleed and blend with mine
___________________________________________________________________________________________________
___________________________________________________________________________________________________

02. Human 3:58
Tabbed By: kaydulay


STANDARD TUNING

*So Raggi strums the chords in the chorus, but here is what he plays for the verse and prechorus.
Lyrics and chords are listed after since that is what Nanna plays throughout.

INTRO AND VERSE 
Guitar 1 (Raggi):
e|----------------------------------------------------------------------------------|
B|------8------8-------------8-------8-----------7------7------------7------7-------|
G|----9------9-------9-----9-------9-----9-----7------7------7-----7------7------7--|
D|----------------------------------------------------------------------------------|
A|--7------7------7-----7-------7------7-----5------5------5-----5------5------5----|
E|----------------------------------------------------------------------------------|                    

e|----------------------------------------------------------------------------------|
B|------5------5-------------5-------5-----------7------7------------7------7-------|
G|----5------5-------5-----5-------5-----5-----7------7------7-----7------7------7--|
D|----------------------------------------------------------------------------------|
A|--3------3------3-----3-------3------3-----5------5------5-----5------5------5----|
E|----------------------------------------------------------------------------------|               
                           (Play through 2x for Intro)
                           (Play through 2x for Verse)

PRECHORUS
e|----------------------------------------------------------------------------------|
B|------5------5-------------5-------5-----------7------7------------7------7-------|
G|----5------5-------5-----5-------5-----5-----7------7------7-----7------7------7--|
D|----------------------------------------------------------------------------------|  (2x)
A|--3------3------3-----3-------3------3-----5------5------5-----5------5------5----|
E|----------------------------------------------------------------------------------|


Also here is the little riff heard throughout the song:
Guitar 3 (Brynjar):
e|--------------------------------------7-7----|
B|--10-10-----10-10-----10-10-----10-10--------|
G|--------9-9-------9-9-------9-9--------------|
D|---------------------------------------------|
A|---------------------------------------------|
E|---------------------------------------------|


*Now here are the chords played throughout

VERSE 1
          Em
When the words 
  D                 C      D
Weigh heavy on the heart
      Em
I am lost 
     D                C     D
And led only by the stars


PRECHORUS
                  C
Cage me like an animal
                       D
A crown with gems and gold
                 C
Eat me like a cannibal
                 D
Chase the neon throne


CHORUS
        Em               D
Breathe in, breathe out
               C
Let the human in
        Em               D
Breathe in, breathe out
            C
And let it in
         Em                    D
Plants awoke and they slowly grow
             C
Beneath the skin
           Em               D
So breathe in, breathe out
               C
Let the human in


VERSE 2 
    Em      D
The air is silk
                C    D
Shadows form a grin
      Em     D
If I lose control
                   C     D
I feed the beast within


PRECHORUS
                  C
Cage me like an animal
                       D
A crown with gems and gold
                 C
Eat me like a cannibal
                 D
Chase the neon throne


CHORUS
        Em               D
Breathe in, breathe out
               C
Let the human in
        Em               D
Breathe in, breathe out
            C
And let it in
         Em                    D
Plants awoke and they slowly grow
             C
Beneath the skin
           Em               D
So breathe in, breathe out
               C
Let the human in


BRIDGE

CHORDS: Em - D - C - D (2x)

Guitar 3 (Brynjar):
e|------------------------------------------------------------------------------------------------|
B|--12-12-12-12-12-12-12-12-12-12-12-12--15-15-15-15----------------------------------------------|
G|---------------------------------------------------14-14-14-14-14-14-14-12-14-14-14-12-14-14-14-|
D|------------------------------------------------------------------------------------------------|
A|------------------------------------------------------------------------------------------------|
E|------------------------------------------------------------------------------------------------|

e|-------------------------------------------------------------------------------------------------|
B|--12------------------------------------------------------12-------------------------------------|
G|------14-12--------------------------14-14-14-12-14-14-14----14-14-14-14-14-14-14-14-14-14-14-14-|
D|------------14-14-14-14-14-14-14-14--------------------------------------------------------------|
A|-------------------------------------------------------------------------------------------------|
E|-------------------------------------------------------------------------------------------------|
                                      (Play through that twice)

OUTRO
                  C
Cage me like an animal
                       D
A crown with gems and gold
                 C
Eat me like a cannibal
                 D
Chase the neon throne
                    Em
If I could only let go
___________________________________________________________________________________________________
___________________________________________________________________________________________________

03. Hunger 4:50
Tabbed By: kaydulay


CAPO 2

CHORDS:
e|----x----|----x----|----x----|----0----|----0----|
B|----0----|----0----|----0----|----1----|----0----|
G|----0----|----0----|----2----|----0----|----0----|
D|----2----|----0----|----0----|----2----|----2----|
A|----3----|----2----|----0----|----3----|----2----|
E|----x----|----3----|----2----|----x----|----0----|
    C7M         G       D6/F#       C        Em

VERSE

C7M        G           D6/F#
You were right, I'll move on
                     C7M  
But my lungs feel so small
              G      D6/F#
I couldn't breathe if I tried
C7M       G          D6/F#
I lay my head on the floor
                         C7M  
My beating heart wanted more
                  G             D6/F#
But I'll keep it in and keep you out

C7M    G            D6/F#
I'm drowning, I'm drowning
C7M    G            D6/F#
I'm drowning, I'm drowning


INTERLUDE: C7M   - G - D6/F# (2x)


GUITAR 2 (CAPO 2)
e|-----------------------------------------------------------------------------|
B|------0----------------------------------0-----------------------------------|
G|---0-------0--0-------0-----2----2/4--0-------0--0-------0----2----2p0--0----|
D|--------------0-----0---0------------------------0-----0---0-----------------|
A|---3-----3----------------------------3-----3---------------------------3----|
E|--------------3-------------2--------------------3------------2--------------|
                ^                                  ^
           For those Gs I'm pretty sure in the live performances I hear 
           the open B string played (3xx00x) but I don't hear it in the studio
           version so you can just play what you like best
           

VERSE 2
C7M            G           D6/F#
And for the longest time I knew 
                               C7M  
There was nothing left for us to do
        G         D6/F#
But I tried, oh I try
 C7M           G   D6/F#
And in this quiet company
                                C7M  
There is nothing staring back at me
        G        D6/F#
I'm in need of a sound


CHORUS
  C             Em
Hungry for the kill
           G              C
But this hunger it isn't you
  C        Em                    G                 C
Voices disappear when you are speaking in sombre tunes
  C            Em                    G                      C
I will be the wolf and when you're starving you'll need it too
  C             Em
Hungry for the kill
           G              C
But this hunger it isn't you

It isn't you, it isn't


INTERLUDE: C7M   - G - D6/F# (2x)


GUITAR 2 (CAPO 2) Same as first interlude
e|-----------------------------------------------------------------------------|
B|------0----------------------------------0-----------------------------------|
G|---0-------0--0-------0-----2----2/4--0-------0--0-------0----2----2p0--0----|
D|--------------0-----0---0------------------------0-----0---0-----------------|
A|---3-----3----------------------------3-----3---------------------------3----|
E|--------------3-------------2--------------------3------------2--------------|



VERSE 3
C7M            G        D6/F#
I grew tall to fill the void
                                 C7M             G
Let me go because you are just a shade of what I am
            D6/F#
Not what I'll be
C7M           G    D6/F#
But in this quiet company 
                                 C7M  
I forgot sometimes just how to breathe
          G          D6/F#
Fill my lungs with a sound


CHORUS
  C             Em
Hungry for the kill
           G              C
But this hunger it isn't you
  C        Em                    G                 C
Voices disappear when you are speaking in sombre tunes
  C            Em                    G                      C
I will be the wolf and when you're starving you'll need it too
  C             Em
Hungry for the kill
           G              C
But this hunger it isn't you

It isn't you, it isn't


BRIDGE/OUTRO

 Em - G - C7M   (4x)

 Em    G             C7M  
I'm drowning, I'm drowning
 Em    G             C7M  
I'm drowning, I'm drowning
 Em    G             C7M  
I'm drowning, I'm drowning
C7M    G            D6/F#
I'm drowning, I'm drowning
C7M    G            D6/F#
I'm drowning, I'm drowning
___________________________________________________________________________________________________
___________________________________________________________________________________________________

04. Wolves Without Teeth 3:53
Tabbed By: kaydulay


Raggi plays with no capo and Nanna plays with a capo on the second fret so I just 
listed the chords Nanna plays at the bottom if you prefer to play that

STANDARD TUNING

VERSE
   Bm
Open my chest and color the spine
      A
I'm giving you all, I'm giving you all
  Em
Swallow my breath and take what is mine
      G
I'm giving you all, I'm giving you all
 Bm
I'll be the blood if you'll be the bones
      A
I'm giving you all, I'm giving you all
    Em
So lift all my body and lose all control
      G
I'm giving you all, I'm giving you all


PRECHORUS
     Bm
You hover like a hummingbird, haunt me in my sleep
         A
You're sailing from another world
                            Em
Sinking in my sea, you're feeding on my energy
                               Bm   A
I'm letting go of it, she wants it


CHORUS
                  G             D
And I run from wolves, hoo ooh ooh
             Bm          A
Breathing heavily at my feet
                  G             D
And I run from wolves, hoo ooh ooh
              Bm           A
Tearing into me without teeth


VERSE
  Bm
I can see through you, we are the same
  A
It's perfectly strange, you run in my veins
  Em
How can I keep you inside my lungs
  G
I breathe what is yours, you breathe what is mine


PRECHORUS
     Bm
You hover like a hummingbird, haunt me in my sleep
         A
You're sailing from another world
                            Em
Sinking in my sea, you're feeding on my energy
                              Bm   A
I'm letting go of it, he wants it


CHORUS 
                  G             D
And I run from wolves, hoo ooh ooh
             Bm          A
Breathing heavily at my feet
                  G             D
And I run from wolves, hoo ooh ooh
             Bm           A
Tearing into me without teeth
              Em    G
And you can follow
               Bm   A
You can follow me
          Em    G
You can follow
               Bm   A
You can follow me


BRIDGE
     Em                         G         
You hover like a hummingbird, haunt me in my sleep
         Bm                             
You're sailing from another world
  A                            Em 
Sinking in my sea, oh you're feeding on my energy
   G                        Bm    A
I'm letting go of it, she wants it



CHORUS
                  G             D
And I run from wolves, hoo ooh ooh
             Bm          A
Breathing heavily at my feet
                  G             D
And I run from wolves, hoo ooh ooh
             Bm           A
Tearing into me without teeth
              Em    G
And you can follow
               Bm   A
You can follow me
          Em    G
You can follow
               Bm   A
You can follow me
              Em    G
And you can follow
               Bm   A
You can follow me
          Em    G
You can follow
               Bm   A
You can follow me


So these are the chords Nanna plays.

CAPO 2

Verse: Am - G - Dm - F7M  

Prechorus: Am - G - Dm - Am - G

Chorus: F7M   - C - Am - G

Second part of chorus ("You can follow..."): Dm - F7M   - Am - G

Bridge: Dm - F7M   - Am - G (2x)
___________________________________________________________________________________________________
___________________________________________________________________________________________________

05. Empire 4:22
Tabbed By: kaydulay


CAPO 3

VERSE 1
 Am       C             Dm                Am
Feel the ocean as it breathes, shivering teeth
           C                  Dm             Am 
See the mountains where they meet, smotherin me
        C                  Dm                      Am
As the wind fends off the waves, I count down the days
        C              Dm
Heavy stones fear no weather


INTERLUDE: Am - C - Dm (2x)

GUITAR 2 (Brynjar)
e|---------------------------------------------------------------|
B|-----11---8------------------------------------8---------------|
G|----------------8--10---8--10---8--10---8--10-----10--8--------|
D|--10----------------------------------------------------10-----|
A|---------------------------------------------------------------|
E|---------------------------------------------------------------|


VERSE 2
Am       C             Dm                          Am
I find comfort in the sound, and the shape of the heart
         C                 Dm                    Am 
How it echoes through the chest from under the ground
        C                Dm                     Am
As the hills turn into holes, I fill them with gold
        C              Dm
Heavy stones fear no weather


CHORUS
   F7M           Am                      G
And from the rain comes a river running wild

That will create an empire for you
  F7M          Am                    G        
Illuminate, there's a river running wild that will create
            F7M    Am
an empire for you
               G
an empire for two
            F7M    Am
an empire for you
               G
an empire for two


VERSE 3
 Am     C              Dm                    Am
And I paint your body black, I hide in your hair
              C            Dm                Am 
And you're staring back at me like I wasn't there
         C             Dm                    Am
As our bodies become stills, we welcome the fear
        C              Dm
Heavy stones fear no weather


CHORUS 2
   F7M           Am                      G
And from the rain comes a river running wild

That will create an empire for you
  F7M          Am                    G        
Illuminate, there's a river running wild that will create
            F7M    Am
an empire for you
               G
an empire for two
            F7M    Am
an empire for you
               G
an empire for two


BRIDGE: F7M   - Am - G (2x)

GUITAR 2 (Brynjar)
e|---------------------------------------------------------------|
B|-----11---8------------------------------------8---------------|
G|----------------8--10---8--10---8--10---8--10-----10--8--------|
D|--10----------------------------------------------------10-----|
A|---------------------------------------------------------------|
E|---------------------------------------------------------------|


CHORUS 3
   F7M           Am                      G
And from the rain comes a river running wild

That will create an empire for you
  F7M          Am                    G        
Illuminate, there's a river running wild that will create
            F7M    Am
an empire for you
               G
an empire for two
            F7M    Am
an empire for you
               G
an empire for two
 F7M     Am    G
Whoa oh oh oh oh oh oh oh oh oh oh oh oh oh  
 F7M       Am    G
Oh whoa oh oh oh oh oh oh oh oh oh oh oh oh 
 Dm   F7M    Am      G
Oh whoa oh oh oh oh oh oh oh oh oh oh oh oh
 Dm   F7M     G  
Oh whoa oh oh oh 


So in the live video Nanna is playing an electric and I'll just list the chords she plays

GUITAR 3 (Nanna) 

CAPO 8

NOTE: She plays G with the high E string muted (32000x)

VERSE AND INTERLUDES: Em - G - Am

CHORUS: C - Em - Dsus2

Whoa oh... (End of last chorus): Am - C - Em - Dsus2 - Am - C - Dsus2
___________________________________________________________________________________________________
___________________________________________________________________________________________________

06. Winter Sound 3:42
Tabbed By: Davetran


[Intro]
Em G
Em G


[Verse]
Em                           G
Stop, You're cold against the skin
    Em                                        G
You take me in your arms when walls are closing in
    Em                                G
And I run, I run, I run, awakening my heart
        Em                                 G
But you overwhelm my lungs, It's tearing me a-part


[Chorus]
D     
You and I will not be shaken!
C               G
  By the winter sound
D                           
  But my voice is suffocating
C               G
  In the winter sound
         Em
oo-oo-oo-ooooo
        G
Whoa-oh-ohhhh-oh 
         Em
oo-oo-oo-ooooo
        G
Whoa-oh-oh-Whoa-oh-oh


[Verse]
Em                   G
Stop, I will take control
Em                                 G
Bend the metal in-to shapes that I, know
      Em                             G
And I run, I run, I run, further than before
  Em                             G
I shake away the skin to saturate my, soul


[Chorus]
D     
You and I will not be shaken!
C               G
  By the winter sound
D                           
  But my voice is suffocating
C               G
  In the winter sound
D     
You and I will not be shaken!
C               G
  By the winter sound
D                           
  But my voice is suffocating
C               G
  In the winter sound


[Verse]
        Em
And you scream, you scratch, you bite
              G
You prey on my heart
      Em                              G
And I know that you and I can never be a-part


[Bridge]
         Em
oo-oo-oo-ooooo
        G
Whoa-oh-ohhhh-oh 
         Em
oo-oo-oo-ooooo
        G
Whoa-oh-oh-Whoa-oh-oh-Whoa-oh-oh
         Em
oo-oo-oo-ooooo
        G
Whoa-oh-ohhhh-oh 
         Em
oo-oo-oo-ooooo
        G
Whoa-oh-oh-Whoa-oh-oh-Whoa-oh-oh-Whoa-oh-oh-Whoa-oh-oh-Whoa-oh-oh



[Chorus]
D     
You and I will not be shaken!
C               G
  By the winter sound
D                           
  But my voice is suffocating
C               G
  In the winter 
D     
You and I will not be shaken!
C               G
  By the winter sound
D                           
But my voice is suffocating
C               G
  In the winter sound
___________________________________________________________________________________________________
___________________________________________________________________________________________________

07. Slow Life 5:43
Tabbed By: kaydulay


CAPO 5


VERSE
                Am
What are they talking about
          G
On the weekends
              Dm
Lost in the forest of this heart
               Am
Is a foreign still

                Am
Why are they shaking their heads
                G
We're stuck in slow life
            Dm
Is it the beating of the chest
                        Am
That makes us feel the rest


INTERLUDE: 

Am - G - Dm - Am

Or here is the other guitar part (Also with capo on the 5th)
e|------------0------------------------------------------0----|
B|------------1-------------0----------------------------1----|
G|------------2-------------0----------------------------2----|
D|------0--2--2-------0-----0--------0-0---0---0--2------2----|
A|--0-3-------0--0--3-------2------3-----3---3------3-0--0----|
E|-----------------------3--3----3----------------------------|

                Am
We're slowly sailing away
         G
Behind closed eyes
              Dm
Where not a single ray of light
                          Am
Can puncture through the night


CHORUS
     F7M  
You caught me in a tide
              Am   G
And I caught you
   Dm         
Sheltered by the night
        Am               G
Red in tooth and red in claw
    F7M  
You saw me in new light
           Am   G
And I saw you
   Dm
Sheltered by the night
        Am               G
Red in tooth and red in claw


VERSE
               Am
Between the daylight
          G
And the deep sea
         Dm
Lies a swarm of silhouettes 
            Am
Floating aimlessy

             Am
But I'm a mountain
         G
I am a killer
            Dm     
You'll get lost and buried deep
                 Am
If you swim with me


CHORUS
     F7M  
You caught me in a tide
              Am   G
And I caught you
   Dm         
Sheltered by the night
        Am               G
Red in tooth and red in claw
    F7M  
You saw me in new light
           Am   G
And I saw you
   Dm
Sheltered by the night
        Am               G
Red in tooth and red in claw


BRIDGE

Am - G - Dm - Am (1x)

                    G
Whoa oh, whoa oh oh
                    Dm
Whoa oh, whoa oh oh
                    Am
Whoa oh, whoa oh oh

Whoa oh, whoa oh oh

    Am          
So look at you look at me
                 G
All because we need to know
   F7M  
So look at me look at you
                    Am
All because we'll never to know
    Am
So look at you look at me
                G
All because we need to know
    Dm 
So look at me look at you
                   Am
All because we'll never to know


OUTRO (Whoa oh, whoa oh oh...)

Chords: F7M   - Am - G - Dm - Am - G (Play through 4x then end on F7M  )

Other guitar part 
*THIS PART IS NOT WRITTEN RELATIVE TO CAPO
I thought it would be easier to read it this way:
e|------------------------------------------------------|
B|--15-------15-------15----15-------15-------15--------|
G|-----15-15----15-15----15----15-15----15-15----15-----|
D|------------------------------------------------------|
A|------------------------------------------------------|
E|------------------------------------------------------|

e|------------------------------------------------------|
B|--15-------15-------15----13-------13-------13--------|
G|-----14-14----14-14----14----12-12----12-12----12-----|
D|------------------------------------------------------|
A|------------------------------------------------------|
E|------------------------------------------------------|
                 (Play through 4x)
Then
*BACK TO WRITTEN RELATIVE TO CAPO ON 5TH
e|---------------------------------------------------------|
B|---------------------------------------------------------|
G|---------------------------------------------------------|
D|------0--2---------0-------------0-0---0---0--2----------|
A|--0-3---------0--3---0----------3-----3---3------3-0-----|
E|-----------------------3------3----------------------3---|

e|------------------------------------------------------------------|
B|------------------------------------------------------------------|
G|------------------------------------------------------------------|
D|------0--2---------0-------------0-0---0---0--2--------------0-2--|
A|--0-3---------0--3---0----------3-----3---3------3-0-----0-3------|
E|-----------------------3------3----------------------3------------|
___________________________________________________________________________________________________
___________________________________________________________________________________________________

08. Organs 4:31
Tabbed By: kaydulay


CAPO 10

VERSE
       C                       F7M  
I am sorry this is always how it goes
                  C                            F7M  
The wind blows loudest when you've got your eyes closed
               Dm             Am          F7M  
But I never changed a single color that I breathe
                 G
So you could have tried to take a closer look at me
      C                       F7M  
I am tired of punching in the wind
      C                   F7M  
I am tired of letting it all in
              Dm            Am         F7M  
And I should eat you up at spit you right out
            G
I should not care but I don't know how


CHORUS
      Am        G
So I take off my face 
        C                        F7M  
Cause it reminds me how it all went wrong
       Am        G
And I pull out my tongue 
        C                        F7M  
Cause it reminds me how it all went wrong

(Then there's a little F7M   strum with a hammer-on):
e|---0----|
B|---1----|
G|---0h2--|
D|---3----|
A|---0----|
E|--------|


VERSE 2
      C                     F7M  
I am sorry for the trouble I suppose
              C                      F7M  
My blood runs red, but my body feels so cold
                 Dm         Am           F7M  
I guess I could swim for days in the salty sea
          G
But in the end, the waves will discolor me


CHORUS
      Am        G
So I take off my face 
        C                        F7M  
Cause it reminds me how it all went wrong
       Am        G
And I pull out my tongue 
        C                        F7M  
Cause it reminds me how it all went wrong
       Am        G
And I cough up my lungs
             C                    F7M  
Cause they remind me how it all went wrong
        Am          G
But I leave in my heart
                C                F7M  
Cause I don't want to stay in the dark


BRIDGE
 Am         G 
Ooh, ooh ooh ooh 
     C           F7M  
Ooh ooh ooh ooh ooh ohh
 Am         G 
Ooh, ooh ooh ooh 
     C           F7M  
Ooh ooh ooh ooh ooh ohh


CHORUS
      Am        G
So I take off my face 
        C                        F7M  
Cause it reminds me how it all went wrong
       Am        G
And I pull out my tongue 
        C                        F7M  
Cause it reminds me how it all went wrong
       Am        G
And I cough up my lungs
             C                    F7M  
Cause they remind me how it all went wrong
        Am          G
But I leave in my heart
                C                F7M  
Cause I don't want to stay in the dark
___________________________________________________________________________________________________
___________________________________________________________________________________________________

09. Black Water 4:13
Tabbed By: kaydulay


STANDARD TUNING

Chords:
   
e|----0----|----0----|----0----|----x----|----0----|----1----|
B|----1----|----1----|----1----|----0----|----0----|----3----|
G|----2----|----2----|----0----|----0----|----0----|----2----|
D|----2----|----3----|----2----|----0----|----2----|----0----|
A|----0----|----3----|----3----|----2----|----2----|----0----|
E|----x----|----x----|----x----|----3----|----0----|----x----|
      Am      F7M         C         G        Em        Dm


So I listed the chords Nanna plays(she doesn't actually come in until the chorus) 
after this so if you just want the chords and lyrics, scroll past raggi's part


So this is Raggi's part:

INTRO AND VERSE 
Guitar 1 (Raggi):

Note: There's sort of just a natural hammer-on on the B string when you change chord shapes. So
for example on the Dm, you should hear the when you hammer on to the 3rd fret 
e|--------------------------|----------|------------------------|---------------|
B|--------1-------1-------1-|--------1-|--------1-------1-------|--0-------0----|
G|----2-------2-------2-----|----0-----|----0-------0-------0---|------2--------|
D|--------------------------|----------|------------------------|----0---0------|
A|--0---0---0---0---0---0---|----------|--3---3---3---3---3---3-|---------------|
E|--------------------------|--3---3---|------------------------|---------------|
          Am                     G                  C                   Dm               

e|------------------------|----------|----------------------------|----------|
B|--------1-------1-------|-0--------|-1-------1------1--------1--|-------1--| 
G|----2-------2-------2---|-----0----|-----2-------2-------2------|---2------| 
D|--3---3---3---3---3---3-|----------|---3---3---3---3---3---3----|----------| 
A|------------------------|----------|----------------------------|-3---3----|
E|------------------------|---0---0--|----------------------------|----------|
          F7M                  Em                 F7M                 F7M  

                                                                       ^^^
Play that until the last time leading into the chorus and instead of that last F7M  , play this:
e|---------------|
B|--0---3----0---|
G|---------------|
D|----0---0------|
A|---------------|
E|---------------|
        Dm


CHORUS
e|--------0------0--------0-------0-|-------0-------0-------0-------0-|
B|----1-------1-------1-------1-----|---1-------1-------1-------1-----| 
G|----------------------------------|---------------------------------|
D|----------------------------------|-3---3---3---3---3---3---3---3---|
A|--3---3---3---3---3---3---3---3---|---------------------------------|
E|----------------------------------|---------------------------------|
                  C                               F7M        

e|--------0------0--------0-------0-|-------0-------0-------0-------0-|
B|----1-------1-------1-------1-----|---1-------1-------1-------1-----| 
G|----------------------------------|---------------------------------|
D|----------------------------------|-3---3---3---3---3---3---3---3---|
A|--0---0---0---0---0---0---0---0---|---------------------------------|
E|----------------------------------|---------------------------------|
                  Am                               F7M           

BRIDGE ("Whoa oh oh...")
It's the same chords as the intro/verse except you're plucking the open strings like in the chorus
e|--------0-------0------0--|--------0-|--------0-------0-------|----------------|
B|--------------------------|----------|------------------------|--0----3---0----|
G|----2-------2-------2-----|----0-----|----0-------0-------0---|----------------|
D|--------------------------|----------|------------------------|-----0---0------|
A|--0---0---0---0---0---0---|----------|--3---3---3---3---3---3-|----------------|
E|--------------------------|--3---3---|------------------------|----------------|
          Am                     G                  C                 Dm               

e|--------0-------0-------|-0--------|-0-------0-------0-------0--|-------0--|
B|------------------------|----------|----------------------------|----------| 
G|----2-------2-------2---|-----0----|-----2-------2-------2------|---2------| 
D|--3---3---3---3---3---3-|----------|---3---3---3---3---3---3----|----------| 
A|------------------------|----------|----------------------------|-3---3----|
E|------------------------|---0---0--|----------------------------|----------|
          F7M                  Em                 F7M                 F7M  

                                                                       ^^^
Play that until the last time leading into the chorus and instead of that last F7M  , play this:
e|---------------|
B|--0---3----0---|
G|---------------|
D|----0---0------|
A|---------------|
E|---------------|
        Dm



VERSE 1
         Am        G          C
I need nothing to travel the sea
  Dm     F7M     Em     F7M     
I need nothing, I need nothing
              Am        G       C    Dm
But there's something eating at me
    F7M     Em    F7M     Dm
Black water, take over



CHORUS
    C                          F7M  
Swallowed by a vicious, vengeful sea

Oh whoa ooh oh oh
  Am                      F7M  
Darker days are raining over me

Oh whoa ooh oh oh
 C                         F7M  
In the deepest depths I lost myself
   Am                      F7M  
I see myself through someone else



VERSE 2
              Am         G      C    Dm
The strange silence surrounding me
     F7M      Em    F7M      Dm
Grows closer, feels colder
         Am       G          C    Dm
But I'm ready to suffer the sea
    F7M     Em   F7M     Dm
Black water, take over


CHORUS
    C                          F7M  
Swallowed by a vicious, vengeful sea

Oh whoa ooh oh oh
  Am                      F7M  
Darker days are raining over me

Oh whoa ooh oh oh
 C                         F7M  
In the deepest depths I lost myself
   Am                       F7M  
I see myself through someone else


BRIDGE
 Am             G         C
Whoa oh oh, oh whoa oh oh oh
 Dm        Fmaj   Em     F7M  
Whoa oh oh oh, whoa oh oh oh
 Am       G      C
Whoa, oh whoa oh oh
 Dm        F7M    Em     F7M       Dm
Whoa oh oh oh, whoa oh oh oh


CHORUS
    C                          F7M  
Swallowed by a vicious, vengeful sea

Oh whoa ooh oh oh
  Am                      F7M  
Darker days are raining over me

Oh whoa ooh oh oh
 C                         F7M  
In the deepest depths I lost myself
   Am                       F7M  
I see myself through someone else
___________________________________________________________________________________________________
___________________________________________________________________________________________________

10. Thousand Eyes 4:02
Tabbed By: NBA96


Am
 Until this storm, until this storm
 Until this storm we'll wait
 Am               G
 I can't control withering wonders
   F7M                     Am
 Flowers that lose their shape

Am                        G
 I lie awake and watch it all
                 F7M    Am
 It feels like thousand eyes
Am                        G
 I lie awake and watch it all
                 F7M    Am
 It feels like thousand eyes

 Am                Am
 I'll be the calm, I will be quiet
    Am                    Am
 Stripped to the bone, I wait
     Am               G           
 No, I'll be a stone, I'll be the hunter
    F7M                 Am
 A tower that casts a shade

Am                        G
 I lie awake and watch it all
                 F7M    Am
 It feels like thousand eyes
Am                        G
 I lie awake and watch it all
                 F7M    Am
 It feels like thousand eyes
Am                        G
 I lie awake and watch it all
                 F7M    Am
 It feels like thousand eyes

Am ~

            Am
 I am the storm
            Am
 I am the storm
            Am
 I am the storm
 So wait
___________________________________________________________________________________________________
___________________________________________________________________________________________________

11. I Of The Storm 4:36
Tabbed By: kaydulay


CAPO 2

Chords:
   
e|----0----|----0----|----0----|----x----|
B|----1----|----1----|----1----|----0----|
G|----2----|----2----|----0----|----0----|
D|----2----|----3----|----2----|----0----|
A|----0----|----0----|----3----|----2----|
E|----x----|----x----|----x----|----3----|
      Am      F7M         C         G


Intro: Am - F7M   - C (2x)


Verse

  Am
If I could face them,
  F7M  
If I could make amends,
  C
With all my shadows
  Am       F7M              C
I'd bow my head and welcome them
  Am
But I feel it burnin' 
  F7M                       C
Like when the winter wind stops my breathing
                                       Am
Are you really gonna love me when I'm gone
                 F7M        C
I fear you won't, I fear you don't



Prechorus
         F7M           Am
And it echoes when I breathe 
             G
Til all you see

Is my ghost
     F7M         Am
Empty vessel, crooked teeth
                G
Wish you could see
                         F7M   (start of chorus)
And they call me under



Chorus

          C           Am
And I'm shaking like a leaf
           G            F7M  
And they call me under
        C        Am
And I wither underneath
         G
In this storm



Post chorus: Am - F7M   - C (2x)



Verse 2

  Am        F7M                 C
I am a stranger, I am an alien 

Inside a structure
                                       Am
Are you really gonna love me when I'm gone
             F7M  
With all my thoughts 
            C
And all my faults
  Am               F7M                 C
I feel it bitin', I feel it break my skin

So univitin'
                                       Am
Are you really gonna need me when I'm gone
           F7M                 C
I feel you won't, I feel you don't



Prechorus

       F7M              Am
And it echoes when I breathe 
             G
Til all you see

Is my ghost
  F7M             Am
Empty vessel, crooked teeth
                G
Wish you could see
                         F7M   (start of chorus)
And they call me under 



Chorus

          C           Am
And I'm shaking like a leaf
           G            F7M  
And they call me under
        C        Am
And I wither underneath
         G               F7M  
In this storm, I feel it
          C         Am
And they call me under
           G             F7M  
And I'm shaking like a leaf
          C         Am
And they call me underneath
         G
To this storm


Outro: Am - F7M   - C
___________________________________________________________________________________________________
___________________________________________________________________________________________________

12. We Sink 4:23
Tabbed By: Davetran


Capo 2


[Intro]
Am C F
Am C F


[Verse 1]
Am  C          F
All those eyes on me
     Am     Em          F
As I sink into the open sea
Am    G               F
Color in my sheltered mind
         Am    Em           F
Fill the gap between you and I


[Chorus]
           F
We are the sleepers
            Am
We bite our tongue
           C
We set the fire
              F
And we let it burn
            F
Through the dreamers
            Am
We hear the hum
         C                       F
And say "Come on, come on, let's go"
   G                       F
So come on, come on, let's go


[Post Chorus]
Am C F
Am C F

[Verse 2]
     Am        C               F
It's warm, the skin I'm living in
       Am      Em            F
It creates and shapes what is within
          Am   G               F
So please look away, don't look at me
      Am     Em          F
As we sink into the open sea


[Chorus]
           F
We are the sleepers
            Am
We bite our tongue
           C
We set the fire
              F
And we let it burn
            F
Through the dreamers
            Am
We hear the hum
         C                       F
And say "Come on, come on, let's go"
           F
We are the sleepers
            Am
We bite our tongue
           C
We set the fire
              F
And we let it burn
            F
Through the dreamers
            Am
We hear the hum
         C                       F
And say "Come on, come on, let's go"
   G                       F
So come on, come on, let's go


[Break]
Am F C G
Am F C G


[Bridge x3]
                   Am            F
I know that it's a waste of time
C                  G
Chasing in the dark
                    Am            F
But keep me in your clouded minds
     C                   G 
'Til time ignites a spark

[Outro]
Am F C G
Am F C G
___________________________________________________________________________________________________
___________________________________________________________________________________________________

13. Backyard 4:19
Tabbed By: NBA96


Intro: 
Am G Dm
Am G Dm

Am           G 
 I live the life of love
Dm                       Am
 Hold me down, hold me down
             G               Dm
 I live the life of letting go
Am         G 
 Until the starling high 
Dm                               Am
 I wrap myself in thin sheets of ice
                 G               Dm
 Out there the stars are crystal eyes

 F  Am   C                   Em
 Ooooh, find me in the backyard
 F  Am   C                   Em
 Ooooh, find me in the backyard in the dark
 F  Am   C                   Em
 Ooooh, find me in the backyard
 F  Am   C                   Em
 Ooooh, find me in the backyard 

          Am          G
 Cuz you colour me clear
       Dm
 Now what are you, what are you waiting for?
           Am          G
 Yeah you colour me clear
       Dm
 Now what are you waiting for?

Am G Dm
Am G Dm

Am           G
 See how my mind is tired
Dm                                   Am
 From blue to black, from white to gray
            G               Dm
 I'm burned and the broken one
Am            G      Dm                          Am
 The drops illuminate and evaporate into a neon lake
           G                Dm
 I'ma be stand the vicious one

 F  Am   C                   Em
 Ooooh, find me in the backyard
 F  Am   C                   Em
 Ooooh, find me in the backyard in the dark
 F  Am   C                   Em
 Ooooh, find me in the backyard
 F  Am   C                   Em
 Ooooh, find me in the backyard 

          Am          G
 Cuz you colour me clear
       Dm
 Now what are you, what are you waiting for?
           Am          G
 Yeah you colour me clear
       Dm
 Now what are you waiting for?

          Am          G
 Cuz you colour me clear
       Dm
 Now what are you, what are you waiting for?
           Am          G
 Yeah you colour me clear
       Dm
 Now what are you waiting for?
___________________________________________________________________________________________________
___________________________________________________________________________________________________
Добавлено: 05.10.2015
Другие материалы по этой песне:
  • Аккорды и текст

Страница создана 05.10.2015
http://primanota.ru/of-monsters-and-men/beneath-skin-album-chords.htm
Привет, Гость.
Предлагаем пройти революционный курс по гитаре.
Подарок от PrimaNota.Ru, забирай!