PrimaNota.ru - самый крупный в мире бесплатный архив песенных текстов, аккордов, табулатур и нот


Novelists - Earth Grazer - таба, видео

Регистрация Запомнить меня
Войти через:  Facebook Google Twitter Vk Yandex Mail.ru

Novelists - Earth Grazer - таба, видео

Печатать
Просмотров: 97
-------------------------------------------------------------------------------
                             Earth Grazer - Novelists
-------------------------------------------------------------------------------
Tabbed by: Kristyn Lee
E-mail: spot_the_village_loony_836@hotmail.com

Tuning: Drop A - 7 string guitar 

This tab is incomplete. I will edit it at the next possible opportunity. 


Intro x 2

e|---------------------------------------------------------------------------------------------------|
B|---------------------------------------------------------------------------------------------------|
G|---------------------------------------------------------------------------------------------------|
D|--------------------------------------------------------------------7*-----------------------------|
A|-----------------------------------------------------------------7*--------------5-7----5-7--------|
E|------------------------XXX--------------------------------------------XXX-------------------------|
A|---12h13-10h12-12\\\\\--XXX--10h12-12---0-00-00--5522---1p0-0-0--------XXX--1/5-------8------8\\\--|
                                               ..               .

0:15
e|--------------------------------------------------------------------------------------------|
B|--------------------------------------------------------------------------------------------|
G|--------------------------------------------------------------------------------------------|
D|---------------------------------------------------------------7*---------------------------|
A|------------------------------------------------------------7*----------------5/7---5/7-----|
E|--------------------------------------------------------------------------------------------|
A|---12h13-0-0~--00--12h13-0-0--0-0--00-12h13-0-0--0-0-00-0-0--------0-0-00--5------8------8--|
           .     ..       

0:31              x2 
e|-----------------------------------------------------------------|
B|-----------------------------------------------------------------|
G|-----------------------------------------------------------------|
D|-----------------------------------------------------------------|
A|-----------------------------------------------------------------|
E|-----------------------------------------------------------------|
A|--8800000000000000000000000088000000000000005555555555555555-----|
    ..........................................................

0:46   x2
e|-----------------------------------------------------------|
B|-----------------------------------------------------------|
G|-----------------------------------------------------------|
D|-----------------------------------------------------------|
A|------8-----------------------------8------------10~-------|
E|---------------8---88--8-8888----------------8----8-~------|
A|---8----0--00--5~--55--5-5555----8-----0-00--5-0--8-~------|
             ..      ..    ....            ..    .

1:05  x4
e|----------------------------------------------------------------------------------------------|
B|----------------------------------------------------------------------------------------------|
G|----------------------------------------------------------------------------------------------|
D|----------------------------------------------------------------------------------------------|
A|----------------------------------------------------------------------------------------------|
E|-------------------------------------------------5----1*1*1*---------------------XXX----------|
A|---1h5-2h5-0005-0-3-2-2-2-XXX--5-3-1--0-00--XXX----1--1*1*1*---0h12\\\--0h12\\\--XXX--3-1-0---|
             ...                          ..
e|---------------------------------------------------------------------------|
B|---------------------------------------------------------------------------|
G|---------------------------------------------------------------------------|
D|------------------------------------------------5--------------------------|
A|------------------7-77-77--10-1010-1010---7---------------121212--8888-----|
E|---5--------------5-55-55--8--8-8--8-8------5h8---8p5---7-8-8-8---5555-----|
A|-----0-0-XXX-0--0-5-55-55--8--8-8--8-8------------------7-8-8-8---5555-----|
                  . .    .   .       .

e|-------------------------------------------------------------------|
B|-------------------------------------------------------------------|
G|-------------------------------------------------------------------|
D|-------------------------------------------------------------------|
A|-------------------------------------------------------------------|
E|-----------------------------------------------0-0-0--5555-0--6----|
A|---0-0-0--12*12*12*12*--0-12\\\\---0h3-0h1--0--1-1-1-------1-------|



e|-----------------------------------------|
B|-----------------------------------------|
G|-----------------------------------------|
D|-----------------------------------------|
A|-----------------------------------------|
E|-----------------------------------------|
A|-----------------------------------------|




************************************

| /   slide up
| \   slide down
| h   hammer-on
| p   pull-off
| ~   vibrato
| *   harmonic
| x   mute note
| b   Bend
| pb  Pre-bend
| br  Bend release
| pbr Pre-bend release
| brb Bend release bend

************************************
Добавлено: 27.04.2016
Вам также может быть интересно:
Другие материалы по этой песне:
  • Аккорды и текст

Страница создана 26.04.2016
http://primanota.ru/novelists/earth-grazer-chords.htm
Привет, Гость.
Предлагаем пройти революционный курс по гитаре.
Подарок от PrimaNota.Ru, забирай!