PrimaNota.ru - самый крупный в мире бесплатный архив песенных текстов, аккордов, табулатур и нот


Nomy - Cola Light - аккорды и текст, видео

Регистрация Запомнить меня
Войти через:  Facebook Google Twitter Vk Yandex Mail.ru

Nomy - Cola Light - аккорды и текст, видео

Печатать
Просмотров: 1081
Cola Light
Nomy
Alright, this is my first tab ever, and I just figured this song out yesterday. 
If you think I could've done something better, feel free to email me: 
eli-974@hotmail.com.

Artist: Nomy
Song: Cola Light
Tuning: Standard (EADGBe)

|-----------------|-----------------|--------5--------|--------------|
|---------------7-|------------7----|--------5--------|--------------|
|-----------------|---------------7-|--------6--------|--------------|
|------4----7-----|--------6--------|--------7--------|--------------|
|---5-------------|----7------------|--------7--------|--------------|
|-----------------|-----------------|--------5--------|--------------|

     A             D
You lying fucking whore
         E         A
I don't want you anymore
         D                  E                  A
I don't need your fucking lies and that's for sure

      A            D
No matter if you cry
         E                A
I don't care if you would die
     D                 E                      A
So fuck yourself you bitch cause you're the glitch

        D E                A                  
But it hurts to sing this song
           D        E              A
And in my heart I know I'm doing wrong

|-----------------|-----------------|------9----------|--------------|
|-----------10----|--9---10--12-----|----------10-----|--------------|
|---6-7-9-------9-|-----------------|-----------------|--------------|
|-----------------|-----------------|-----------------|--------------|
|-----------------|-----------------|-----------------|--------------|
|-----------------|-----------------|-----------------|--------------|

       A          D
You fucking antichrist
            E             A
You made yourself my kryptonite
            D              E               A
If I would like some cola you'll be cola light

       A            D
Your doing is not right
            E               A
You're not even worth the fight
      D              E                    A
Cause honey I want cola but you're cola light

             A            D
You're enot even worth a piss
                E                     A
You gave your bestfriend one of your kiss
       D                   E                A
God I hate you fuck yourself you fucking whore

        D E                A
But it hurts to sing this song
           D        E              A
And in my heart I know I'm doing wrong
        D E                 A
But it hurts to sing this song
           D        E             A
And in my heart I know I'm doing wrong

      A               D                    E        A
You fucking whore you son of a bitch why can't you die
    A                D                E    A
I hate your fucking lies you fucking ass hole
     A              D                E        A
You punk ass motherfucker damn you and your lies
        A                  D                  E         A
You can go and fuck your bestfriend hope you both will die.

       D  E                A
But it hurts to sing this song
           D        E               A
And in my heart I know I'm doing wrong
        D E                 A
But it hurts to sing this song
           D        E              A
And in my heart I know I'm doing wrong

|-----------------|-----------------|------9-----5----|--------------|
|-----------10----|--9---10--12-----|------------5----|--------------|
|---6-7-9-------9-|-----------------|------------6----|--------------|
|-----------------|-----------------|------------7----|--------------|
|-----------------|-----------------|------------7----|--------------|
|-----------------|-----------------|------------5----|--------------|
Добавлено: 29.08.2013
Другие материалы по этой песне:
  • Аккорды и текст

Страница создана 29.08.2013
http://primanota.ru/nomy/cola-light-chords.htm
Привет, Гость.
Предлагаем пройти революционный курс по гитаре.
Подарок от PrimaNota.Ru, забирай!