PrimaNota.ru - самый крупный в мире бесплатный архив песенных текстов, аккордов, табулатур и нот


Noir Desir - Bouquet De Nerfs - аккорды и текст, видео

Регистрация Запомнить меня
Войти через:  Facebook Google Twitter Vk Yandex Mail.ru

Noir Desir - Bouquet De Nerfs - аккорды и текст, видео

Печатать
Просмотров: 72
Авторы музыки: Jean Paul Roy, Serge Teyssot-Gay, Bertrand Cantat, Denis Barthe
Авторы текста: Bertrand Cantat
Bouquet De Nerfs
Noir Desir
Song: Bouquet de nerfs
Band: Noir Désir
Album : Des visages des figures
Year: 2001
Tabber: beranger80@hotmail.com


 
Intro (0:00)

   A                 C                   A     F         A
e-----------------------------------------------------------|
b-----------------------------------------------------------|
g-----------9-------------------------------------5-5-5-----|
d--7--7---7-----7-9--10-10--12--10--9----7--7--3--3-3-3--7--|
a--7--7---7----------10-10----------7----7--7--3---------7--|
e--5--5---5----------8--8-----------7----5--5--1---------5--|

0:14
   A                  C                  A     F         E
e-----------------------------------------------------------|
b--------------------------------------------------------0--|
g------------9------------------------------------5-5-5--0--|
d--7---7-7-7-----7-9--10----12--10--9----7--7--3--3-3-3--2--|
a--7---7-7-7----------10------------7----7--7--3---------2--|
e--5---5-5-5----------8-------------7----5--5--1---------0--|

0:27
   C                 B          F         E 
e--------------------------------------------|
b--------------------------------------------|
g----------------------------------5-5-5--0--|
d--10--10-10-12--10--9----7--7--3--3-3-3--2--|
a--10--10-10---------7----7--7--3---------2--|
e---8---8--8---------7----5--5--1---------0--|
 
0:37
   C                 B          F         A 
e--------------------------------------------|
b-----------------------------------------2--|
g----------------------------------5-5-5--2--|
d--10--10-10-12--10--9----7--7--3--3-3-3--2--|
a--10--10-10---------7----7--7--3---------0--|
e---8---8--8---------7----5--5--1------------|



Verse (0:47)

A                        C   A
    Journée de la pleine lune
                 F
Au sommet de la dune
A
A caresser de loin ton chien
A                       C
T'oublies or not t'oublies
                  E   A 
Les ombres d'opalines
                     F         E
Au rendez-vous suivant, j'attends
C                 E          F
Au fond d'une autre limousine
E
Qui ne vaut pas plus cher
                     A
Que ce bouquet de nerfs



Verse (1:28)

A                 C
A frôler la calanche
                  A
Les étendues salines
                  F              A
A perte de vue on s'imagine en Chine
                     C      A
Trompe la mort et tais-toi
                      F
Trois petits tours et puis s'en va
                E
J'opère tes amygdales
                    C
Labyrinthiques, que dalle
                 A
Ne m'est plus rien égal
         F            E
Je sais je n'ai offert que des bouquets de nerfs



Bridge (2:08)

A  C  F   A
A  C  F   E
C  E  C   E



Verse (2:47)

A           C                        A
   Rubis de Sade et jade, déjà je dis non
                   F
Diamant, c'est éternel
                          A
Des fleurs, des bouts du ciel immense
                  C          
La liste des parfums capiteux
A                    F
Capitalistes c'est bien
             E
Mais olfacultatif
C                 A
Liste en boule, au panier
F                 E                      A
Finalement j'ai offert quelques bouquets de nerfs



Chorus (3:30)

F               C
Agendas donnez-moi
                 E
De vos dates à damner
                     F
Tous les bouddhas du monde
             A 
Et la Guadalupe
                  C
S'il arrive qu'un Anglais
               E
Vienne me visiter
                    F
Dans la métempsychose
               E                       C
Je saurai recevoir je peux lui en faire voir de la sérénité
   E                                    F
Et même lui laisser un certain goût de fer
E                         A
    Et ce bouquet de nerfs
Добавлено: 16.11.2015
Другие материалы по этой песне:
  • Аккорды и текст

Страница создана 02.10.2014
http://primanota.ru/noir-desir/bouquet-de-nerfs-chords.htm
Привет, Гость.
Предлагаем пройти революционный курс по гитаре.
Подарок от PrimaNota.Ru, забирай!