PrimaNota.ru - самый крупный в мире бесплатный архив песенных текстов, аккордов, табулатур и нот


Noir Desir - A Lenvers A Lendroit - аккорды и текст, таба, видео

Регистрация Запомнить меня
Войти через:  Facebook Google Twitter Vk Yandex Mail.ru

Noir Desir - A Lenvers A Lendroit - аккорды и текст, таба, видео

Печатать
Просмотров: 161
A Lenvers A Lendroit
Noir Desir
Intro: Fm Ab Bb / Plus facile en Capo 1

Fm                                       Ab           Bb
On est pas encore revenu du pays des mystères
Il y a qu'on est entré là sans avoir vu de la lumière
Il y a là l'eau le feu le computer Vivendi et la terre
On doit pouvoir s'épanouir à tout envoyer enfin en l'air

On peut toujours saluer les petits rois de pacotille
On peut toujours espérer entrer un jour dans la famille
Sûr que tu pourras devenir un crackboursier à toi tout seul
On pourrait même envisager que tout nous explose à la gueule

C#               Cm            Bb            Ab
Autour des oliviers palpitent les origines
Cm        Bb         Ab               Gm
infiniment se voir rouler dans la farine
Fm         Db   Cm     Fm        Ab   Bb
A l'envers à l'endroit à l'envers à l'endroit
Fm         Db   Cm     Fm        Ab   Bb
A l'endroit  à l'envers à l'envers à l'endroit

Y'a t'il un incendie prévu ce soir dans l'hémicycle
On dirait qu'il est temps pour nous d'envisager un autre cycle
On peut caresser des idéaux sans s'éloigner d'en bas
On peut toujours rêver de s'en aller mais sans bouger de là

Il paraît que la blanche colombe à trois cents tonnes de plombs dans l'aile
Il parît qu'il faut s'habituer à des printemps sans hirondelles
La belle au bois dormant a rompu les négociations
Unilatéralement le prince entame des protestations
Doit-on se courber encore et toujours pour une ligne droite?
Prière pour trouver les grands espaces entre les parois d'une boîte
Serait-ce un estuaire ou le bout du chemin au loin qu'on entrevoit
Spéciale dédicace à la flaque où on nage où on se noie

Autour des amandiers fleurissent les mondes en sourdine
No pasaran sous les fourches caudines

A l'envers à l'endroit à l'envers à l'endroit
A l'endroit  à l'envers à l'envers à l'endroit

_______________________________________________________________________

TAB

Voici le riff principal, joué par sergio tout le long
e--------------------------------------|
---------------------------------------|
------5-------5---------5--------7-----|
----------6-8------6-6---6-6-8---------|
--8-8--8-------------------------------|
E|-------------------------------------|


Apres y a une variante a un moment ou il joue cette arpege (environ ;)

e---------|
------6---|
----5-----|
--6-------|
----------|
E|--------|

Il  est joué hyper vite au milieu de la chanson, et juste deux fois..

et a la fin les petites notes, avec reprise du deuxieme morceau du riff pour rester synchro !


e-----------------------------|
---6---6----------------------|
-5---8---8-5-----5-----7------|
----------------6---6-8-------|
------------------------------|
E|----------------------------|


et tout a la fin, petite variante

e------------------------------------|
-----6---6---------------------------|
---5---8---8-6-5------5------7-------|
---------------------6----6-8--------|
-------------------------------------|
E|-----------------------------------|


----------------------------------------------------------------|
----------------------------------------------------------------|
-----------------------------------7-----9----------------------|
---5-5 -3--5----------------------8-----10----------------------|
---5-5 -3--5----------------------8-----10----------------------|
---3 3--3- 3----------------------6-----8-----------------------|
Gm                                            A#m     Cm
On est pas encore revenu du pays des mystères
Il y a qu'on est entré là sans avoir vu de la lumière
Il y a là l'eau le feu le computer Vivendi et la terre
On doit pouvoir s'épanouir à tout envoyer enfin en l'air


____________________________________________

En live, on peut essayer avec un capo en 1e case et jouer consécutivement Em-G-A.
Добавлено: 18.07.2013
Другие материалы по этой песне:

Страница создана 01.04.2012
http://primanota.ru/noir-desir/a-lenvers-a-lendroit-chords.htm
Привет, Гость.
Предлагаем пройти революционный курс по гитаре.
Подарок от PrimaNota.Ru, забирай!