PrimaNota.ru - самый крупный в мире бесплатный архив песенных текстов, аккордов, табулатур и нот


Nofx - We Threw Gasoline On The Fire And Now We Have Stumps For Arms And No Eyebrows - бас-таба, видео

Регистрация Запомнить меня
Войти через:  Facebook Google Twitter Vk Yandex Mail.ru

Nofx - We Threw Gasoline On The Fire And Now We Have Stumps For Arms And No Eyebrows - бас-таба, видео

Печатать
Просмотров: 102
# intro # X5  !play all notes 12X!  (last time without last note)
G---9-------7-------7-------9-------|
D---7-------7-------7-------7-------|
A-----------------------------------|
E-----------------------------------|
:
# intro-part2 # X4  (I thought this was guitar first!)
G---9-9---9-9-99-999---|
D---7-7---7-7-77-777---|
A----------------------|
E----------------------|
:
# verse #     *=play 12X    #=play 6X                                       >
G------------------------------------------------------------------------#-->
D--------------------101010--*---------------------------------------#-10--->
A--121212101010-8-8-8------10---------------------------------8-8-810------->
E-------------------------------------------8-8-8-6-6-6-5-5-5--------------->
>verse                                                                      >
>--------------------------------------------------------------------------->
>--------------------101010121210-9-9----#---------------------------#---#-->
>--121212101010-8-8-8----------------1210---------------------8-8-810---8--->
>-------------------------------------------8-8-8-6-6-6-5-5-5--------------->
>verse
>-----12-------|
>---12--12--#--|
>-10------10---|
>--------------|
:
# chorus #      *=play 6X                                       >
G----------------------------------------------------*-------*-->
D----*-------*---------------*-------*-------*------3-------7--->
A---3-------1--------*------3-------3-------2------------------->
E-------------------1------------------------------------------->
>chorus
>-------------------------------------------------|-1212-121212-1212---|
>----*-------*-------*---14121012----*-------*----|-1010-101010-1010---|
>---8------10------12---------------8------10-----|--------------------|
>-------------------------------------------------|-------4X-----------|
:
# verse2 #     *=play 12X    #=play 6X                                      >
G------------------------------------------------------------------------#-->
D--------------------101010--*---------------------------------------#-10--->
A--121212101010-8-8-8------10---------------------------------8-8-810------->
E-------------------------------------------8-8-8-6-6-6-5-5-5--------------->
>verse2                                                                     >
>--------------------------------------------------------------------------->
>---------9-9-9101010101010121210-9-9----#---------------------------#---#-->
>--121212----------------------------1210---------------------8-8-810---8--->
>-------------------------------------------8-8-8-6-6-6-5-5-5--------------->
>verse
>------------|
>---#--------|
>-10--10-----|
>------------|
:
>>>>>>>>to next page...    (first bass tab, which goes to next page!!!)
:
:
:
:
:
:
:
WE THREW GASOLINE...                                                      2/2
:
# chorus2 #     *=play 6X                                       >
G----------------------------------------------------*-------*-->
D----*-------*---------------*-------*-------*------3-------7--->
A---3-------1--------*------3-------3-------2------------------->
E-------------------1------------------------------------------->
>chorus2
>-----------------------------------------------|
>----*-------*------*-10101214121012-*----------|
>---8------10------12---------------8------10---|
>-----------------------------------------------|
:
# bridge #A&B X2   !second time first part only once!  !end with first note!             
                    >
G-|----------------3X---------------|-----------------------------------|
D-|---------------------------------|-----------------------------------|
A-|-3-3----101010-------------------|-3-3---------------------------2---|
E-|---------------0-1-1-----1-1-1-3-|---------1-1-1-1-3-3-----3-3-3-----|
:
# chorus3 #     *=play 6X   #=play 6X                           >
G------------------------------------------------------------*-->
D-----------------------------------------------------------7--->
A---------palm-muted-guitar----palm-muted-guitar---------------->
E--------------------------------------------------------------->
>chorus3
>-------------------------------------------------|-1212-121212-1212---|
>----*-------*-------*-------#---#---*-------*----|-1010-101010-1010---|
>---8------10------12------12--10---8------10-----|--------------------|
>-------------------------------------------------|-------4X-----------|
Добавлено: 13.06.2012
Другие материалы по этой песне:
  • Аккорды и текст

Страница создана 13.06.2012
http://primanota.ru/nofx/we-threw-gasoline-on-the-fire-and-now-we-have-stumps-for-arms-and-no-eyebrows-chords.htm
Привет, Гость.
Предлагаем пройти революционный курс по гитаре.
Подарок от PrimaNota.Ru, забирай!