PrimaNota.ru - самый крупный в мире бесплатный архив песенных текстов, аккордов, табулатур и нот


Nofx - You Put Your Chocolate In My Peanut Butter - текст песни, таба, видео

Регистрация Запомнить меня
Войти через:  Facebook Google Twitter Vk Yandex Mail.ru

Nofx - You Put Your Chocolate In My Peanut Butter - текст песни, таба, видео

Печатать
Просмотров: 90
YOU PUT YOUR CHOCOLATE IN MY PEANUT BUTTER by NOFX. Album : Liberal animation
(1988)                                                                    1/2
Cool riffs + Dave's solo = great song.
A=Dave   B=Melvin   A&B=both
:
# intro #A   *=play 24X                                                  >
E------------------------------------------------------------------------>
B------------------------------------------------------------------------>
G--------------------------------------------------------------------7\-->
D----------------------------------10101010-7------10101010-7---5-7--7\-->
A----------------------------------10101010-7------10101010-7---5-7--5\-->
E-----------------------------------8-8-8-8-5-------8-8-8-8-5---3-5------>
# intro #B   *=play 24X   h=hammer-on                                    >
E-----------------------------23202-------------------------------------->
B---2-2-2-3---------2-2-2-3---33333-------------------------------------->
G---2-2-2-2---------2-2-2-2---------------------------------------------->
D---0-------------------------------------------------------------------->
A------------------------------------------------------------------------>
E------------------------------------------------------------------------>
>introA
>------------------------------------------------------------------------|
>---------------------------------------------------------------------*--|
>--------------------------------------------------------------------7---|
>----------------------------------10101010-7------10101010-7---5-7--7---|
>----------------------------------10101010-7------10101010-7---5-7--5---|
>-----------------------------------8-8-8-8-5-------8-8-8-8-5---3-5------|
# intro #B
>-------------23202------------------------------------------------------|
>---2-2-2-3---33333-2-2-2-3-2h32h35-----------------------------------*--|
>---2-2-2-2---------2-2-2-2------------------------------------------7---|
>---0----------------------------------------------------------------7---|
>--------------------------------------------------------------------5---|
>------------------------------------------------------------------------|
:
# into-verse #A
E-------------------|
B-------------------|
G---7-6-5-----------|
D---------7-6-5-----|
A---------------5---|
E-------------------|
# into-verse #B
E-------------------|
B--------10-9-8-----|
G---7-6-5-------7---|
D-------------------|
A-------------------|
E-------------------|
:
# verse #A&B   *=play 12X   #=play 6X
E-----------------------------------|
B----*-------*-------*-------#------|
G---7-------5-------7-------5----#--|
D---7-------5-------7-------5---5---|
A---5-------3-------5-------3---5---|
E-------------------------------3---|
:
>>>>>>>>>>to next page...
:
:
:
:
:
:
:
:
:
:
YOU PUT YOUR CHOCHOLATE IN MY PEANUT BUTTER                               2/2
:
# bridge #A
E-----------------------------------------------|
B----------------------------------------10-9---|
G---7-7-7-5-7-910-9-5-7-----------5-6-7--10-9---|
D---7-7-7-5-7-910-9-5-7-----5-6-7---------------|
A---5-5-5-3-5-7-8-7-3-5---5---------------------|
E-----------------------------------------------|
# bridge #B
E-----------------------------------------------|
B-----------------------------------------------|
G---7-7-7-5-7-910-9-5-7-----------5-6-7---------|
D---7-7-7-5-7-910-9-5-7-----5-6-7---------------|
A---5-5-5-3-5-7-8-7-3-5---5---------------------|
E-----------------------------------------------|
:
Then play A&BverseA&B and AbridgeA or BbridgeB.
:
# bridge2 #A   b=bend-up to next note   h=hammer-on   p=pull-off
E------------------------------------------------------------------------------|
B-------85------------------13---15h18---13h15---13h15----------1111-----------|
G---5b7---75-7--5\-/14p12h14----------17------14------1412-10h12----121210-9-7-|
D-----------7------------------------------------------------------------------|
A------------------------------------------------------------------------------|
E------------------------------------------------------------------------------|
# bridge2 #B
E------------------------------------------------------------------------------|
B------------------------------------------------------------------------------|
G---7-----------7--------------7-----------------------------------------5-6-7-|
D---7-----3--5--7-----8----8---7----------3-------5----------------5-6-7-------|
A---5-----3--5--5-----8----8---5----------3-------5--------------5-------------|
E---------1--3--------6----6--------------1-------3----------------------------|
:
Then play A&BverseA&B, AbridgeA or BbridgeB, A&BverseA&B, AbridgeA or
BbridgeB, Abridge2A or Bbridge2B(different rhythm) and A&BverseA&B.
:
# bridge3 #A X2    #=play 15X   *=play 7X          !use palm-muting!
E--------------------------------------------------------------------|
B----#--------------*---------------#---------------*----------------|
G---7--------------5---------------7---------------5-----------------|
D---7--------------5----------3--3-7---------------5----------3--5---|
A---5--------------3-------345--5--5---------------3-------345--5----|
E--------------------------------------------------------------------|
# bridge3 #B X2    *=play 7X                       !use palm-muting!
E--------------------------------------------------------------------|
B----*--------------*---------------*---------------*----------------|
G---7---------5--5-5---------------7----------5--5-5-----------------|
D---7------757--7--5----------3--3-7-------757--7--5----------3--5---|
A---5--------------3-------345--5--5---------------3-------345--5----|
E--------------------------------------------------------------------|
:
# outro #            ()=play 3X
E--(-----------------------------------------------)------------------|
B--(-----------------------------------------------)------------------|
G--(-----------------------------------------------)7---7-7-7-7---7---|
D--(------------------5-3-5-7-5-7-8-7-5-7-5-3-5-3-2)7---7-7-7-7---7---|
A--(5-3-5-7-5-7-8-7-8------------------------------)5---5-5-5-5---5---|
E--(-----------------------------------------------)------------------|
:
That outro is straight from some heavy metal song.
Tabbed by Jussi Heinonen 01.11.1998.              Thanks to Juha Kellokoski
Добавлено: 22.05.2012
Другие материалы по этой песне:
  • Аккорды и текст

Страница создана 21.04.2012
http://primanota.ru/nofx/you-put-your-chocolate-in-my-peanut-butter-chords.htm
Привет, Гость.
Предлагаем пройти революционный курс по гитаре.
Подарок от PrimaNota.Ru, забирай!