PrimaNota.ru - самый крупный в мире бесплатный архив песенных текстов, аккордов, табулатур и нот


Nofx - Secret Society - таба, видео

Регистрация Запомнить меня
Войти через:  Facebook Google Twitter Vk Yandex Mail.ru

Nofx - Secret Society - таба, видео

Печатать
Просмотров: 276
Secret Society
NOFX
jjjddd

EADGBe

e|--------------------------------------------------------------------|
B|--------------------------------------------------------------------|
G|--------------------------------------------------------------------|
D|--------------------------------------------------------------------|
A|---5-5-5-5-5-5-5-5-5-5-5-5-5-5-5-5/8-8-8-8-8-8-8-8-8-8-8-8-8-8-8-8--|
E|---3-3-3-3-3-3-3-3-3-3-3-3-3-3-3-3/6-6-6-6-6-6-6-6-6-6-6-6-6-6-6-6--|
     * * * * * * * * * * * * * * * * * * * * * * * * * * * * * * * *

e|--------------------------------------------------------------------|
B|--------------------------------------------------------------------|
G|--------------------------------------------------------------------|
D|---------------------------------------------------------5-5-5-5-5--|
A|---3-3-3-3-3-3-3-3-3-3-3-3-3-3-3-3-5-5-5-5-5-5-5-5-5-5-5-5-5-5-5-5--|
E|---1-1-1-1-1-1-1-1-1-1-1-1-1-1-1-1-3-3-3-3-3-3-3-3-3-3-3-3-3-3-3-3--|
     * * * * * * * * * * * * * * * * * * * * * * * * * * *

verse
e|--------------------------------------------------------------------|
B|--------------------------------------------------------------------|
G|--------------------------------------------------------------------|
D|--------------------------------------------------------------------|
A|---5-5-5-5-5-5-5-5-5-5-5-5-5-5-5-5-8-8-8-8-8-8-8-8-8-8-8-8-8-8-8-8--|
E|---3-3-3-3-3-3-3-3-3-3-3-3-3-3-3-3-6-6-6-6-6-6-6-6-6-6-6-6-6-6-6-6--|
     * * * * * * * * * * * * * * * * * * * * * * * * * * * * * * * *         x3

e|--------------------------------------------------------------------|
B|--------------------------------------------------------------------|
G|--------------------------------------------------------------------|
D|--------------------------------------------------------------------|
A|---3-3-3-3-3-3-3-3-3-3-3-3-3-3-3-3-5-5-5-5-5-5-5-5-8--8-8-10-8-7-8--|
E|---1-1-1-1-1-1-1-1-1-1-1-1-1-1-1-1-3-3-3-3-3-3-3-3-6--6-6-8--6-5-6--|
     * * * * * * * * * * * * * * * * * * * * * * * *

chorus
e|--------------------------------------------------------------------|
B|--------------------------------------------------------------------|
G|--------------------------------------------------------------------|
D|------------------1010101012121212-----------------1010101012121212-|
A|--5-5-5-5-8-8-8-8-8-8-8-8-10101010-5-5-5-5-8-8-8-8-8-8-8-8-10101010-|
E|--3-3-3-3-6-6-6-6------------------3-3-3-3-6-6-6-6------------------|

e|-----------------------------------------------------------------|
B|-----------------------------------------------------------------|
G|---8-8-8-8---------10101010-12121212-8-8-8-8---------------------|
D|---8-8-8-8-8-8-8-8-10101010-12121212-8-8-8-8---------------------|
A|---6-6-6-6-8-8-8-8-8-8-8-8--10101010-6-6-6-6--8-8-8-8-10-8-7-8---|
E|-----------6-6-6-6----------------------------6-6-6-6-8--6-5-6---|
                                                * * * * *  * * *

verse
e|--------------------------------------------------------------------|
B|--------------------------------------------------------------------|
G|--------------------------------------------------------------------|
D|--------------------------------------------------------------------|
A|---5-5-5-5-5-5-5-5-5-5-5-5-5-5-5-5-8-8-8-8-8-8-8-8-8-8-8-8-8-8-8-8--|
E|---3-3-3-3-3-3-3-3-3-3-3-3-3-3-3-3-6-6-6-6-6-6-6-6-6-6-6-6-6-6-6-6--|
     * * * * * * * * * * * * * * * * * * * * * * * * * * * * * * * *         x2

e|--------------------------------------------------------------------|
B|--------------------------------------------------------------------|
G|--------------------------------------------------------------------|
D|--------------------------------------------------------------------|
A|---3-3-3-3-3-3-3-3-3-3-3-3-3-3-3-3-5-5-5-5-5-5-5-5-8--8-8-10-8-7-8--|
E|---1-1-1-1-1-1-1-1-1-1-1-1-1-1-1-1-3-3-3-3-3-3-3-3-6--6-6-8--6-5-6--|
     * * * * * * * * * * * * * * * * * * * * * * * *

chorus
e|--------------------------------------------------------------------|
B|--------------------------------------------------------------------|
G|--------------------------------------------------------------------|
D|------------------1010101012121212-----------------1010101012121212-|
A|--5-5-5-5-8-8-8-8-8-8-8-8-10101010-5-5-5-5-8-8-8-8-8-8-8-8-10101010-|
E|--3-3-3-3-6-6-6-6------------------3-3-3-3-6-6-6-6------------------|

e|-----------------------------------------------------------------|
B|-----------------------------------------------------------------|
G|---8-8-8-8---------10101010-12121212-8-8-8-8---------------------|
D|---8-8-8-8-8-8-8-8-10101010-12121212-8-8-8-8---------------------|
A|---6-6-6-6-8-8-8-8-8-8-8-8--10101010-6-6-6-6--8-8-8-8-10-8-7-8---|
E|-----------6-6-6-6----------------------------6-6-6-6-8--6-5-6---|
                                                * * * * *  * * *

e|-----------------------------------|
B|-----------------------------------|
G|-----------------------------------|
D|-----------------------------------|
A|--5-5-5-5-5-5-5-5-5-5-5-5-5-5-5-5--|
E|--3-3-3-3-3-3-3-3-3-3-3-3-3-3-3-3--|
    * * * * * * * * * *

key change bridge(sorta) part
e|-------------------------------------------------------------------|
B|-------------------------------------------------------------------|
G|--5-5-5-5-5-5-5-5-8-8-8-8-8-8-8-8-----------------5-5-5-5-5-5-5-5--|
D|--5-5-5-5-5-5-5-5-8-8-8-8-8-8-8-8-3-3-3-3-3-3-3-3-5-5-5-5-5-5-5-5--|
A|--3-3-3-3-3-3-3-3-6-6-6-6-6-6-6-6-3-3-3-3-3-3-3-3-3-3-3-3-3-3-3-3--|
E|----------------------------------1-1-1-1-1-1-1-1------------------|

e|-------------------------------------------------------------------|
B|-------------------------------------------------------------------|
G|--3-3-3-3-3-3-3-3-5-5-5-5-5-5-5-5-----------------7-7-7-7-7-7-7-7--|
D|--3-3-3-3-3-3-3-3-5-5-5-5-5-5-5-5-5-5-5-5-5-5-5-5-7-7-7-7-7-7-7-7--|
A|--1-1-1-1-1-1-1-1-3-3-3-3-3-3-3-3-5-5-5-5-5-5-5-5-5-5-5-5-5-5-5-5--|
E|----------------------------------3-3-3-3-3-3-3-3------------------|

verse
e|--------------------------------------------------------------------|
B|--------------------------------------------------------------------|
G|--------------------------------------------------------------------|
D|--------------------------------------------------------------------|
A|---5-5-5-5-5-5-5-5-5-5-5-5-5-5-5-5-8-8-8-8-8-8-8-8-8-8-8-8-8-8-8-8--|
E|---3-3-3-3-3-3-3-3-3-3-3-3-3-3-3-3-6-6-6-6-6-6-6-6-6-6-6-6-6-6-6-6--|
     * * * * * * * * * * * * * * * * * * * * * * * * * * * * * * * *         x2

e|--------------------------------------------------------------------|
B|--------------------------------------------------------------------|
G|--------------------------------------------------------------------|
D|--------------------------------------------------------------------|
A|---3-3-3-3-3-3-3-3-3-3-3-3-3-3-3-3-5-5-5-5-5-5-5-5-8--8-8-10-8-7-8--|
E|---1-1-1-1-1-1-1-1-1-1-1-1-1-1-1-1-3-3-3-3-3-3-3-3-6--6-6-8--6-5-6--|
     * * * * * * * * * * * * * * * * * * * * * * * *

chorus
e|--------------------------------------------------------------------|
B|--------------------------------------------------------------------|
G|--------------------------------------------------------------------|
D|------------------1010101012121212-----------------1010101012121212-|
A|--5-5-5-5-8-8-8-8-8-8-8-8-10101010-5-5-5-5-8-8-8-8-8-8-8-8-10101010-|
E|--3-3-3-3-6-6-6-6------------------3-3-3-3-6-6-6-6------------------|

e|--------------------------------------------------|
B|--------------------------------------------------|
G|---8-8-8-8---------10101010-12121212-8-8-8-8------|
D|---8-8-8-8-8-8-8-8-10101010-12121212-8-8-8-8------|
A|---6-6-6-6-8-8-8-8-8-8-8-8--10101010-6-6-6-6------|
E|-----------6-6-6-6----------------------------12\-|

e|--------------------------------------------------------------------|
B|--------------------------------------------------------------------|
G|--------------------------------------------------------------------|
D|------------------1010101012121212-----------------1010101012121212-|
A|--5-5-5-5-8-8-8-8-8-8-8-8-10101010-5-5-5-5-8-8-8-8-8-8-8-8-10101010-|
E|--3-3-3-3-6-6-6-6------------------3-3-3-3-6-6-6-6------------------|

e|-----------------------------------------------------------------|
B|-----------------------------------------------------------------|
G|---8-8-8-8---------10101010-12121212-8-8-8-8---------------------|
D|---8-8-8-8-8-8-8-8-10101010-12121212-8-8-8-8---------------------|
A|---6-6-6-6-8-8-8-8-8-8-8-8--10101010-6-6-6-6--8-8-8-8-10-8-7-8---|
E|-----------6-6-6-6----------------------------6-6-6-6-8--6-5-6---|
                                                * * * * *  * * *
-lyrics-
no gods, no masters
know how to live with magnificent disasters
the shiniest cloaks, most coveted daggers

no limits, no rules
know how to wield dangerous arcane tools
no access to soak in our success pools

in our secret society, we find freedom through slavery
absolute power and hierarchy, in our secret

amusement is scary, doing things totally unnecessary
stocks and bonds are for restraining not trading
procedures, Protocols, programming sentient sex dolls
prolific übermensch downfalls

in our secret society, we find freedom through slavery
absolute power and hierarchy, in our Secret

relinquish (control)                     [melvin sings the parts in brackets]
for true freedom (give up the reigns)
surrender your (free will)
you will attain enlightenment
learn to resign (your mind and soul)
Give someone else (complete control)
give you your sovereignty if you wanna be free

confliction, restriction
a desperate need for benediction
a decision to make no more decisions

large cages and small stables
forniphiliac lamps and tables
the willing who want to be unwilling, enable us, enable us

to live in our severe society, we find freedom through slavery
absolute power and hierarchy, in our secret
in our secret society, we find freedom through slavery
absolute power and hierarchy, in our secret

----------------------------------------
Добавлено: 16.08.2013
Другие материалы по этой песне:

Страница создана 16.08.2013
http://primanota.ru/nofx/secret-society-chords.htm
Привет, Гость.
Предлагаем пройти революционный курс по гитаре.
Подарок от PrimaNota.Ru, забирай!