PrimaNota.ru - самый крупный в мире бесплатный архив песенных текстов, аккордов, табулатур и нот


Nofx - Backstage Passport Theme - таба, видео

Регистрация Запомнить меня
Войти через:  Facebook Google Twitter Vk Yandex Mail.ru

Nofx - Backstage Passport Theme - таба, видео

Печатать
Просмотров: 142
Intro (0:15-0:43) 
e|--------------------------------------------------------------------------|
B|--------------------------------------------------------------------------|
G|---------------2~---------------------------------------------------------|
D|----------4~--------------------------------------------------------------|
A|----2~-----------repeat five-times----------------------------------------|
E|-------2~-----------------------------------------------------------------|

Verse thing (0:43-1:05)
e|--------------------------------------------------------------------------|
B|--------------------------------------------------------------------------|
G|---14-14-14---13-13--13-111111-------------------11-----------------------|
D|----x-x--x----x--x---x--x-x-x--------------------11-----------------------|
A|---12-12-12---11-11-11--9-9-9-four-times---then--9------------------------|
E|--------------------------------------------------------------------------|

Fat Mike starts singing (1:05-1:29)
e|--------------------------------------------------------------------------|
B|--------------------------------------------------------------------------|
G|----------------------------------9999--------------------------------9999|
D|-77777777--22222222--444444444444-9999-77777777-22222222-444444444444-9999|
A|-77777777--22222222--444444444444-7777-77777777-22222222-444444444444-7777|
E|-55555555--00000000--222222222222------55555555-00000000-222222222222-----|

e|--------------------------------------------------------------------------|
B|----------------------------77777777--------------------------------------|
G|-1414141414141414-66666666--66666666-7777777----------99999999------------|
D|-1414141414141414-66666666--44444444-7777777-77777777-99999999------------|
A|-1212121212121212-44444444-----------5555555-77777777-77777777------------|
E|---------------------------------------------55555555---------------------|

e|--------------------------------------------------------------------------|
B|--------------------------------------------------------------------------|
G|-111111111111111111111111--14-14-14-14-14---11--11-11-11-11--14-----------|
D|-111111111111111111111111----X---X--X--X-----X--X--X--X---X--X------------|
A|-9-9-9-9-9-9-9-9-9-9-9-9---12-12-12-12-12----9---9--9--9--9--12-----------|
E|--------------------------------------------------------------------------|

e|--------------------------------------------------------------------------|
B|--------------------------------------------------------------------------|
G|----------------2---------------------------------------------------------|
D|----------------2-let ring------------------------------------------------|
A|----------------0---------------------------------------------------------|
E|-Pickslide-then-----------------------------------------------------------|
Добавлено: 02.06.2013
Другие материалы по этой песне:
  • Аккорды и текст

Страница создана 02.06.2013
http://primanota.ru/nofx/backstage-passport-theme-chords.htm
Привет, Гость.
Предлагаем пройти революционный курс по гитаре.
Подарок от PrimaNota.Ru, забирай!