PrimaNota.ru - самый крупный в мире бесплатный архив песенных текстов, аккордов, табулатур и нот


Nofx - No More Lies - бас-таба, видео

Регистрация Запомнить меня
Войти через:  Facebook Google Twitter Vk Yandex Mail.ru

Nofx - No More Lies - бас-таба, видео

Печатать
Просмотров: 115
Уроки эстрадного вокала в Санкт-Петербурге
Авторы текста: Battalion of Saints
NOFX - No More Lies bass tab        [ dg37 ]

No bass until 30 seconds.

Verse 1
G|---------------------------------------------|
D|---------------------------------------------|
A|----/-77--10-9---77--10-9---77--10-9-11-8~---|
E|---------------------------------------------|



Chorus x2          11=ones
G|--------------------------------------|
D|--------------------------------------|
A|--00--------00--------00--------8~----|
E|-----3-11-3----3-11-3----3-1----------|



Verse 2
G|---------------------------------------------:
D|---------------------------------------------:
A|------77--10-9---77--10-9---77--10-9-11-8~---:
E|---------------------------------------------:
Continued
:----------------------------------------------|
:----------------------------------------------|
:-------------------------------------8~-------|
:--------00--3-2---00--3-2---00-3-2-4----------|


Chorus x2


Verse 3
G|---------------------------------------------:
D|---------------------------------------------:
A|------77--10-9-------10-9-------10-9-11-8~---:
E|-----------------00---------00---------------:
Continued
:----------------------------------------------|
:----------------------------------------------|
:----------------------------------------------|
:--------00--3-2---00--3-2---00-3-2-4-1--------|
Добавлено: 12.04.2012
Другие материалы по этой песне:
  • Аккорды и текст

Страница создана 12.04.2012
http://primanota.ru/nofx/no-more-lies-chords.htm
Привет, Гость.
Предлагаем пройти революционный курс по гитаре.
Подарок от PrimaNota.Ru, забирай!