PrimaNota.ru - самый крупный в мире бесплатный архив песенных текстов, аккордов, табулатур и нот


Nofx - No Woman No Cry - бас-таба, видео

Регистрация Запомнить меня
Войти через:  Facebook Google Twitter Vk Yandex Mail.ru

Nofx - No Woman No Cry - бас-таба, видео

Печатать
Просмотров: 150
+++++++++++++++++++++++++
| NOFX- No Woman No Cry |
+++++++++++++++++++++++++


"Everything's gonna be alright now..."

Tuning: Standard EADG


Intro
1.
G|-----------------------------------------------------|
D|-----------------------------------------------------|
A|-2~------------------------2~----------2~--------1---|
E|-------2~----4~---0~-0~----------0~----------2-4---2-|

2.
G|-----------------------------------------------------|
D|-----------------------------------------------------|
A|-2~------------------------2~----------2~------------|
E|-------2~----4~---0~-0~----------0~------------------|

Chorus
"No woman no cry..."
3.
G|---------------------------------------------|
D|---------------------------------------------|
A|-2222----------------2222------2~-22-----1---|--x2
E|------2222-4444-0000------0000-------2-4---2-|

Verse
"Said I remember where we used to sit..."
4.
G|-----------------------------------------|
D|-----------------------------------------|
A|-2222----------------2222----------------|--x2
E|------2222-4444-0000------2222-4444-0000-|

"Good friends we have..."
5.
G|-----------------------------------------|
D|-----------------------------------------|
A|-2222----------------2222----------------|
E|------2222-4444-0000------2222-4444--0-0-|

"In this great future..."
6.
G|-----------------------------------------|
D|-----------------------------------------|
A|-2222----------------2222----------------|
E|------2222-4444-0000------2222-4444-0000-|

Chorus
"No woman no cry..."
7.
G|---------------------------------------------|
D|---------------------------------------------|
A|-2222----------------2222------2~-22-----1---|--x2
E|------2222-4444-0000------0000-------2-4---2-|

Verse
"Said I remember where we used to sit..."
8.
G|-----------------------------------------|
D|-----------------------------------------|
A|-2222----------------2222----------------|--x2
E|------2222-4444-0000------2222-4444-0000-|

"Then we'd cook some cornmeal porridge..."
9.
G|-----------------------------------------|
D|-----------------------------------------|
A|-2222----------------2222----------------|
E|------2222-4444-0000------2222-4444--0-0-|

"My feet is my only carriage..."
10.
G|-----------------------------------------|
D|-----------------------------------------|
A|-2222----------------2222----------------|
E|------2222-4444-0000------2222-4444-0000-|

"Everything's gonna be alright alright..."
11.
G|------------------------------------------------------------------|
D|------------------------------------------------------------------|
A|-2-222-22------------------------2-222-22-------------------------|--x2
E|---------2-222-224-444-440-000-00--------2-222-224-444-440-000-00-|

12.
G|---------------------------------------------|
D|---------------------------------------------|
A|-2222----------------2222------2~-22-----1---|--x2
E|------2222-4444-0000------0000-------2-4---2-|

Chorus
"No woman no cry..."
13.
G|---------------------------------------------|
D|---------------------------------------------|
A|-2222----------------2222------2~-22-----1---|--x2
E|------2222-4444-0000------0000-------2-4---2-|

Outro
14.
G|-------------------|
D|-------------------|
A|-2x----------------|
E|-------------------|


Please rate thank you!!


Lyrics:

No woman no cry, no woman no cry

Said I remember when we used to sit
In a government yard in Trenchtown
Obba, obba, serving the hypocrites
As the would mingle with the good people we meet
Good friends we have, oh, good friends we've lost
Along the way
In this great future,
You can't forget your past
So dry your tears, I say

Little darling, don't shed no tears, no woman no cry
Say, say, said I remember when we use to sit
In the government yard in Trenchtown
And then Georgie would make the fire lights
As it was, log would burnin' through the nights
Then we would cook cornmeal porridge
Of which I'll share with you
My feet is my only carriage
So I've got to push on thru
Oh, while I'm gone

Everything 's gonna be alright, everything 's gonna be alright



+++++++++++++++++++++++++++++++++
| RaiLeff                       |
| Underground__Dora@Hotmail.Com |
+++++++++++++++++++++++++++++++++
Добавлено: 14.05.2012
Другие материалы по этой песне:
  • Аккорды и текст

Страница создана 14.05.2012
http://primanota.ru/nofx/no-woman-no-cry-chords.htm
Привет, Гость.
Предлагаем пройти революционный курс по гитаре.
Подарок от PrimaNota.Ru, забирай!