PrimaNota.ru - самый крупный в мире бесплатный архив песенных текстов, аккордов, табулатур и нот


Nofx - Les Champ Elysees - бас-таба, видео

Регистрация Запомнить меня
Войти через:  Facebook Google Twitter Vk Yandex Mail.ru

Nofx - Les Champ Elysees - бас-таба, видео

Печатать
Просмотров: 195
Уроки эстрадного вокала в Санкт-Петербурге
Tabbed By : ferd 
e-mail: ferdiamooney
@hotmail.com

Intro
G|---------------------------------------------------------------------------|
D|---------------------------------------------------------------------------|
A|----1010------88-----------------------------------------------------------|
E|-88------1010--------------------------------------------------------------|
x4(or however many times)

verse
G|---------------------------------------------------------------------------|
D|---------------------------------------------------------------------------|
A|----1010------88-----------------------------------------------------------|
E|-88------1010--------------------------------------------------------------|
(however many times)

chorus
G|---------------------------------------------------------------------------|
D|---------------------------------------------------------------------------|
A|------3-3333------3333-----------------------------------------------------|
E|-11-3--------5533------5588------------------------------------------------|

G|---------------------------------------------------------------------------|
D|---------------------------------------------------------------------------|
A|-3333--10101010-33333333-333-8888-------3----------------------------------|
E|------------------------------------11-3-----------------------------------|

bridge
G|---------------------------------------------------------------------------|
D|---------------------------------------------------------------------------|
A|-----------333---------------3333------------------------------------------|
E|-1111-3333-----555-1111-3333-----------------------------------------------|

repeat verse and the chorus twice

lyrics:
je m'baladais sur l'avenue,
le coeur ouvert a l'inconnu.
j'a vais envie de dire bonjour a n'importe

qui n'importe qui et ce fut toi,
je t'ai dit n'importe quoi,
il suffisait de te parler,
pour t'apprivoiser.

aux champs-élysées,
aux champs-élysées
au soleil, sous la pluie, a midi ou a minuit,
il y a tout ce que vous voulez aux champs-élysées

tu m'as dit "j'ai rendez-vous
dans un sous-sol avec des fous,
qui vivent la guitare a la main,
du soir au matin".

alors je t'ai accompagnée,
on a chanté, on a dansé et l'on n'a
même pas pensé a s'embrasser

aux champs-élysées,
aux champs-élysées
au soleil, sous la pluie, a midi ou a minuit,
il y a tout ce que vous voulez aux champs-élysées

Добавлено: 27.05.2012
Другие материалы по этой песне:
  • Аккорды и текст

Страница создана 27.05.2012
http://primanota.ru/nofx/les-champ-elysees-chords.htm
Привет, Гость.
Предлагаем пройти революционный курс по гитаре.
Подарок от PrimaNota.Ru, забирай!