PrimaNota.ru - самый крупный в мире бесплатный архив песенных текстов, аккордов, табулатур и нот


Nofx - Les Champs Elyses - бас-таба, видео

Регистрация Запомнить меня
Войти через:  Facebook Google Twitter Vk Yandex Mail.ru

Nofx - Les Champs Elyses - бас-таба, видео

Печатать
Просмотров: 132
Уроки эстрадного вокала в Санкт-Петербурге
Awesome song by Nofx off of their 1997 album so long and thanks for all the shoes.


Intro:


----------------------------------------------|
-----------------------------------3333333----|   x2
----33333333-------------5555555--------------|
---------------3333333------------------------|


Verse:


-----------------------------------------------|
----------555---------555---333-------3--5-----|   x4
----333---------333--------------333--------3--|
-----------------------------------------------|


Chorus:


-----------------------------------------------|
-------------------------333--222-------555----|   x1
----333--222-----------------------555---------|
--------------555--3333------------------------|


-----------------------------------------------|
---------555-----------333-------3--5----------|   x1
----333-------3333--2-------333--------3-------|
-----------------------------------------------|


Solo (saxophone):


-----------------------------------------------|
----333---555--------------333---555-----------|   x2
---------------3--2--0----------------33-----3-|
------------------------3-----------------3----|


Verse:


-----------------------------------------------|
----------555---------555---333-------3--5-----|   x4
----333---------333--------------333--------3--|
-----------------------------------------------|


Chorus:


-----------------------------------------------|
-------------------------333--222-------555----|   x1
----333--222-----------------------555---------|
--------------555--3333------------------------|


-----------------------------------------------|
---------555-----------333-------3--5----------|   x1
----333-------3333--2-------333--------3-------|
-----------------------------------------------|


---------------------------------|
----3333333---5555555------------|   x1
---------------------------------|
---------------------------------|


(then just play the chorus over again but faster)
Добавлено: 04.03.2012
Другие материалы по этой песне:
  • Аккорды и текст

Страница создана 04.03.2012
http://primanota.ru/nofx/les-champs-elyses-chords.htm
Привет, Гость.
Предлагаем пройти революционный курс по гитаре.
Подарок от PrimaNota.Ru, забирай!