PrimaNota.ru - самый крупный в мире бесплатный архив песенных текстов, аккордов, табулатур и нот


Nofx - Im The One - текст песни, бас-таба, видео

Регистрация Запомнить меня
Войти через:  Facebook Google Twitter Vk Yandex Mail.ru

Nofx - Im The One - текст песни, бас-таба, видео

Печатать
Просмотров: 146
I'm Really Suprised No one has tabed these Cover Songs Out yet!
But Anyways This is An Old Rancid Song NOFX did A Cover For


----------------------------------------------------------------------------
			     SONG NAME - Band Name
----------------------------------------------------------------------------

Tabbed By :Jamie McDonald
e-mail: Chosenfro68@yahoo.com

Tuning:

  Intro
G|------------------------------------------------------------------7~~-----|
D|-----------------------------------------------------------7~~-5~~---7~~--|
A|---------------5~~----------------5~~--------------5~~--------------------|
E|-0-3-4-5~~-3~~-----5~~---5~~--3~~-----5~~--5~~-3~~-----5~~----------------|

  Bridge
G|-----------------------------------------------------------------|
D|----5-5------------5-5--------------5-5-------------5-5----------|
A|-------55555555--------555555555--------55555555--------55555555-|
E|-55-------------55---------------55--------------55--------------|

  Verse
G|---------------------|
D|----7-5--------------|
A|--------7-5-55555/7--|
E|-55------------------|

  Chorus
G|------------------------------7~~~---------|
D|---------------------7~~~~5~~~----7~~~~----|
A|-----------5~~~~---------------------------|
E|-5~~~-3~~~------5~~~~----------------------|

  Part Where Fat Mike Goes "Yeaaah! I am The One!"
G|---------------------------------------------------------|
D|---------------------------------------------------------|
A|-----------------5555555555555555-888888888-77777777777--|
E|-5555555555555555----------------------------------------|

Order
Intro
Bridge
Verse
Chorus
Bridge
Verse
Chorus
Part With Fat Mike
Chorus
Bridge

| /  slide up
| \  slide down
| h  hammer-on
| p  pull-off
| ~  vibrato
| +  harmonic
| x  Mute note
============================================================================
Добавлено: 04.04.2012
Другие материалы по этой песне:
  • Аккорды и текст

Страница создана 04.04.2012
http://primanota.ru/nofx/im-the-one-chords.htm
Привет, Гость.
Предлагаем пройти революционный курс по гитаре.
Подарок от PrimaNota.Ru, забирай!