PrimaNota.ru - самый крупный в мире бесплатный архив песенных текстов, аккордов, табулатур и нот


Nofx - Jesusland - таба, видео

Регистрация Запомнить меня
Войти через:  Facebook Google Twitter Vk Yandex Mail.ru

Nofx - Jesusland - таба, видео

Печатать
Просмотров: 141
Here is NoFX Jesusland tab.  The solo might be a little off but its close

Drop D

X=Muffle


E]-------------------------------------------------------------------------|
B]-------------------------------------------------------------------------|
G]-------------------------------------------------------------------------|
D]-7-7-7-7-7-7-7-7-3-3-3-3-3-3-3-3-5-5-5-5-2-2-2-2-6-6-6-6-7-7-7-7-7-7-7-7-|
A]-7-7-7-7-7-7-7-7-3-3-3-3-3-3-3-3-5-5-5-5-2-2-2-2-6-6-6-6-7-7-7-7-7-7-7-7-|
D]-7-7-7-7-7-7-7-7-3-3-3-3-3-3-3-3-5-5-5-5-2-2-2-2-6-6-6-6-7-7-7-7-7-7-7-7-|

Repeat for a while.

Intro to chorus:

E]----------------------------------------------|
B]----------------------------------------------|
G]----------------------------------------------|
D]-15-15-15-15-15-15-15-15----------15-15-15-15-|
A]-15-15-15-15-15-15-15-15----------15-15-15-15-|
D]-15-15-15-15-15-15-15-15----------15-15-15-15-|

Chorus:
E]------------------------------------------------------------|
B]------------------------------------------------------------|
G]------------------------------------------------------------|
D]-7---X-X--5---X-X-3---X-3---3-3-5---X-X-3---X-X-7-X-7-X-7---|
A]-7---X-X--5---X-X-3---X-3---3-3-5---X-X-3---X-X-7-X-7-X-7---|
D]-7---X-X--5---X-X-3---X-3---3-3-5---X-X-3---X-X-7-X-7-X-7---|

The solo is not perfect but its close.
Solo:

E]-------------------------------------------------------------|
B]-------------------------------------------------------------|
G]-17-17-16-16-14-14-------14-14-14-14-14-14-14-16-17-17-16-16-|
D]-------------------17-17-------------------------------------|
A]-------------------------------------------------------------|
D]-------------------------------------------------------------|

E]------------------------------------------------------------|
B]------------------------------------------------------------|
G]-14-14------14-14-14-14-14-14-14-16-17-17-16-16-14-14-------|
D]-------17-17------------------------------------------17-17-|
A]------------------------------------------------------------|
D]------------------------------------------------------------|

E]------------------------------------------------------------|
B]------------------------------------------------------------|
G]-14-14-14-14-14-14-14-16-17-17-16-16-14-14-------14---------|
D]-------------------------------------------17-17------------|
A]------------------------------------------------------------|
D]------------------------------------------------------------|

Intro to Chorus (2nd time):

E]---------------------------------------------|
B]---------------------------------------------|
G]---------------------------------------------|
D]-15-15-15-15-15-15-15-15-3-3-3-3-15-15-15-15-|
A]-15-15-15-15-15-15-15-15-3-3-3-3-15-15-15-15-|
D]-15-15-15-15-15-15-15-15-3-3-3-3-15-15-15-15-|

Intro to Chorus (3rd time):

E]----------------------------------------|
B]----------------------------------------|
G]----------------------------------------|
D]15-15-15-15-3-3-3-3-15-15-15-15-3-3-3-3-|
A]15-15-15-15-3-3-3-3-15-15-15-15-3-3-3-3-|
D]15-15-15-15-3-3-3-3-15-15-15-15-3-3-3-3-|

And that's the song.
You should be able to find the area of the sections in the song pretty easily.

Tabbed by: Crankworx
Email me if you find mistakes.
Добавлено: 17.04.2012
Другие материалы по этой песне:
  • Аккорды и текст

Страница создана 17.04.2012
http://primanota.ru/nofx/jesusland-chords.htm
Привет, Гость.
Предлагаем пройти революционный курс по гитаре.
Подарок от PrimaNota.Ru, забирай!