PrimaNota.ru - самый крупный в мире бесплатный архив песенных текстов, аккордов, табулатур и нот


Nofx - I Believe In Goddess - таба, бас-таба, видео

Регистрация Запомнить меня
Войти через:  Facebook Google Twitter Vk Yandex Mail.ru

Nofx - I Believe In Goddess - таба, бас-таба, видео

Печатать
Просмотров: 269
INTRO

guitar A:

    PM--------------------------------------------------------------------|
E/------------------------------------------------------------------------|
B/------------------------------------------------------------------------|
G/------------------------------------------------------------------------|
D/------------------------------------------------------------------------|
A/------------------------------------------------------------------------|
E/0000303522321013000030352232000000003035223210130000303522320000


guitar B

E/----------------------------------------------------------------------|
B/----------------------------------------------------------------------|
G/----------------------------------------------------------------------|
D/----------------------------------------------------------------------|
A/----------------------------------------------------------------------|
E/----------------------------------------------------------------------|

Guitar A

    PM-------------------------------------------------------------------|
E/-----------------------------------------------------------------------|
B/-----------------------------------------------------------------------|
G/-----------------------------------------------------------------------|
D/-----------------------------------------------------------------------|
A/-----------------------------------------------------------------------|
E/0000303522321013000030352232000000003035223210130000303522320----------|


guitar B

E/-----------------------------------------------------------------------|
B/-----------------------------------------------------------------------|
G/9----------------------------------------------------------------------|
D/-----------------------------------------------------------------------|
A/7----------------------------------------------------------------------|
E/--------------------------------------------------------------2320-----|


Guitar A&B X2

E/----------------------------------------------------------------------|
B/----------------------------------------------------------------------|
G/----------------------------------------------------------------------|
D/----------------------------------------------------------------------|
A/----------------------------------------------------------------------|
E/0000303522321013000030352232000000003035223210130000303522320000


VERSE

Guitar A&B

E/-------------------------------|
B/-------------------------------|
G/--5-7-----5-7-9---5-7---5---7--|
D/2-5-7-2-2-5-7-9-2-5-7-7-5-5-7--|
A/2-3-5-2-2-3-5-7-2-3-5-7-3-5-5--|
E/0-----0-0-------0-----5---3----|

Riff

Guitar A&B

E/----------------------------------------------------------------------|
B/----------------------------------------------------------------------|
G/----------------------------------------------------------------------|
D/----------------------------------------------------------------------|
A/----------------------------------------------------------------------|
E/0000303522321013000030352232000000003035223210130000303522320000


VERSE 2

Guitar A&B

E/-------------------------------|
B/-------------------------------|
G/--5-7-----5-7-9---5-7---5---7--|
D/2-5-7-2-2-5-7-9-2-5-7-7-5-5-7--|
A/2-3-5-2-2-3-5-7-2-3-5-7-3-5-5--|
E/0-----0-0-------0-----5---3----|

BRIDGE

Guitar A&B x4

E/------------|
B/------------|
G/9-12-14-9---|
D/9-12-14-9---|
A/7-10-12-7---|
E/------------|

Guitar A

E/----------------|
B/----------------|
G/9-------7-------|
D/9---5---7---7---|
A/7---5---5---7---|
E/----3-------5---|

Guitar B


E/---------------------------------------------------------|
B/---------------------------------------------------------|
G/-16-16-16-1614-16-16-16-1416-14-14-14-1412-14-14-12-9----|
D/---------------------------------------------------------|
A/-14-14-14-1412-14-14-14-1214-12-12-12-1210-12-12-10-7----|
E/---------------------------------------------------------|

VERSE 3

Guitar A&B

E/-------------------------------|
B/-------------------------------|
G/--5-7-----5-7-9---5-7---5---7--|
D/2-5-7-2-2-5-7-9-2-5-7-7-5-5-7--|
A/2-3-5-2-2-3-5-7-2-3-5-7-3-5-5--|
E/0-----0-0-------0-----5---3----|

repeat riff.
Добавлено: 04.02.2014
Другие материалы по этой песне:

Страница создана 27.08.2013
http://primanota.ru/nofx/i-believe-in-goddess-chords.htm
Привет, Гость.
Предлагаем пройти революционный курс по гитаре.
Подарок от PrimaNota.Ru, забирай!