PrimaNota.ru - самый крупный в мире бесплатный архив песенных текстов, аккордов, табулатур и нот


Nofx - Down With The Ship - таба, видео

Регистрация Запомнить меня
Войти через:  Facebook Google Twitter Vk Yandex Mail.ru

Nofx - Down With The Ship - таба, видео

Печатать
Просмотров: 106
BAND: Know Eff Ecks
SONG: Down Whith thuh Ship
ALMB: Selph Entie Told

                           NOFX
                           DOWN WITH THE SHIP

This was a pretty easy one to find out. Just chords. It's got a solo and
I'm not very good a tabbing them but I tried what I could figure out. 
Here you are

---intro
   A        F  E  A        F  E  A        F  E   A       F  E     Dm
e|--------------------------------------------------------------|-----|
B|--------------------------------------------------------------|-6~--|
G|--------------------------------------------------------------|-7~--|
D|-77777777-------77777777-------777777777-------77777777-------|-7~--|
A|-77777777-------77777777-------777777777-------77777777-------|-5~--|
E|-55555555-1--0--55555555-1--0--555555555-1--0--55555555-1--0--|-----|


---verse
   D               A               A#              F
e|------------------------------------------------------------------|
B|------------------------------------------------------------------|
G|-77-777-777-777-7----------------33-333-333-333-3-----------------|
D|-77-777-777-777-777-777-777-777-733-333-333-333-333-333-333-333-3-| x2
A|-55-555-555-555-577-777-777-777-711-111-111-111-133-333-333-333-3-|
E|-----------------55-555-555-555-5----------------11-111-111-111-1-|

   D                         A
It could have been helped, it might have been saved
   A#                  F
With me at the helm, I could have found ways
   D                  A
To keep it afloat and find a new course
    A#                       F
But I steered the ship right into the cliffs


---chorus?
   G               F               G               A
e|------------------------------------------------------------------|
B|------------------------------------------------------------------|
G|------------------------------------------------------------------|
D|-55-555-555-555-533-333-333-333-355-555-555-555-577-777-777-777-7-|
A|-55-555-555-555-533-333-333-333-355-555-555-555-577-777-777-777-7-|
E|-33-333-333-333-311-111-111-111-133-333-333-333-355-555-555-555-5-|

    G               F
The easy way out, a cowardly move
  G                            A  
a short sighted plan made by a self-centered man


---verse
   D               A               A#              F
e|------------------------------------------------------------------|
B|------------------------------------------------------------------|
G|-77-777-777-777-7----------------33-333-333-333-3-----------------|
D|-77-777-777-777-777-777-777-777-733-333-333-333-333-333-333-333-3-| x2
A|-55-555-555-555-577-777-777-777-711-111-111-111-133-333-333-333-3-|
E|-----------------55-555-555-555-5----------------11-111-111-111-1-|

         D                        A
The crew stayed with the ship and bailed as one
A#                           F
They didn't know irreparable damage was done
     D                     A
They had so much pride and camaraderie
    A#                     F
But that was all lost when they spotted me


---chorus?
   G               F               G               A
e|------------------------------------------------------------------|
B|------------------------------------------------------------------|
G|------------------------------------------------------------------|
D|-55-555-555-555-533-333-333-333-355-555-555-555-577-777-777-777-7-|
A|-55-555-555-555-533-333-333-333-355-555-555-555-577-777-777-777-7-|
E|-33-333-333-333-311-111-111-111-133-333-333-333-355-555-555-555-5-|

G                    F
Rowing to shore with treasure on board
  G                       A
a cowardly plan made by a self loathing man


---solo

It's kinda hard because there's 2 solos going on at the same time. I call the high 
bendy one the Hefe solo
and the low brooding one the Melvin solo. Anyway, I think I can make out only the 
beginning of the Mel
and the end of the Hefe solo. The key is A#, so whoever could find them out let me know.


e|----------------------|
B|----------------------|
G|----------------------| M
D|---------------10--8--| E 
A|-5---7--10--12--------| L
E|----------------------|

e|--------------------------------------------------------------------|
B|----------------------------------------------------/trill\---------| H
G|-12--10---9-10-12--10-9-10--9-10-12-10-12-9--------6-------7--------| E
D|-------------------------------------------------------------7------| F
A|--------------------------------------------------------------------| E
E|--------------------------------------------------------------------|

e|--------------------------------------------------------------|-----|
B|--------------------------------------------------------------|-6~--|
G|--------------------------------------------------------------|-7~--|
D|-77777777-------77777777-------777777777-------77777777-------|-7~--|
A|-77777777-------77777777-------777777777-------77777777-------|-5~--|
E|-55555555-1--0--55555555-1--0--555555555-1--0--55555555-1--0--|-----|




---verse
   D               A               A#              F
e|------------------------------------------------------------------|
B|------------------------------------------------------------------|
G|-77-777-777-777-7----------------33-333-333-333-3-----------------|
D|-77-777-777-777-777-777-777-777-733-333-333-333-333-333-333-333-3-| x2
A|-55-555-555-555-577-777-777-777-711-111-111-111-133-333-333-333-3-|
E|-----------------55-555-555-555-5----------------11-111-111-111-1-|

D                    A
Without regrets, without looking back
A#                                  F
I choose to walk on the less beaten sociopath
     D                    A
With all the spoils of an island of one
        A#                    F
I don't need dynasty, I don't need anyone


---chorus?
   G               F               G               A
e|------------------------------------------------------------------|
B|------------------------------------------------------------------|
G|------------------------------------------------------------------|
D|-55-555-555-555-533-333-333-333-355-555-555-555-577-777-777-777-7-|
A|-55-555-555-555-533-333-333-333-355-555-555-555-577-777-777-777-7-|
E|-33-333-333-333-311-111-111-111-133-333-333-333-355-555-555-555-5-|

       G                      F
I knew the consequence when I plotted this trip
G                       A
I'm not a man who'll go down with the ship


---outro

e|-----------------------------------------------------|---------|
B|-----------------------------------------------------|-6-------|
G|-----------------------------------------------------|-7-------|
D|-77777777-------77777777-------777777777-------------|-7-------|
A|-77777777-------77777777-------777777777-------------|-5-------|
E|-55555555-1--0--55555555-1--0--555555555-1------0----|---------|





Well that was it. Down With the Ship. Like I said, I could use some help with
them solos so let me know

-dysenteryandy the shimi
Добавлено: 22.06.2013
Другие материалы по этой песне:
  • Аккорды и текст

Страница создана 22.06.2013
http://primanota.ru/nofx/down-with-the-ship-chords.htm
Привет, Гость.
Предлагаем пройти революционный курс по гитаре.
Подарок от PrimaNota.Ru, забирай!