PrimaNota.ru - самый крупный в мире бесплатный архив песенных текстов, аккордов, табулатур и нот


Nine Inch Nails - Reptile Live - таба, видео

Регистрация Запомнить меня
Войти через:  Facebook Google Twitter Vk Yandex Mail.ru

Nine Inch Nails - Reptile Live - таба, видео

Печатать
Просмотров: 85
This is how I think Reptile is played live, especially during the "Self Destruct" and 
tours . Not 100% sure, but it sounds pretty accurate.

Tuning: DADGBe

     x: mute
     ~: vibrato
     b: bend
    pm: palm mute
/ or \: slide


Intro:
Gtr I, II, III
   /  /  /  /
e|--------------||
B|--------------||
G|-5------------|| 8X
D|-5--------x-x-||
A|-3--------x-x-||
D|----------x-x-||



Verse 1:
Gtr I, II, III

(PM all notes)
e|------------------||
B|------------------||
G|------------------||
D|-0-0-00-0-0-0-0-0-||
A|-0-0-00-0-0-0-0-0-||
D|-0-0-00-0-0-0-0-0-||

Chorus:
Gtr I, II, III

e|---------||
B|---------||
G|---------|| 4x
D|-3--/5---||
A|-3--/5---||
D|-3--/5---||


Bridge:
Gtr I, II

(PM all notes)
e|------------------|
B|------------------|
G|------------------|
D|-0-0-00-0-0-0-0-0-|
A|-0-0-00-0-0-0-0-0-|
D|-0-0-00-0-0-0-0-0-|


Weird guitar synth thing arranged for Gtr III
e|-----------------------------------------------|
B|--9~----------9~-------------------------------|
G|-10~---------10~---------7~----------7~--------|
D|-------------------------7~----------7~--------|
A|-----------------------------------------------|
D|-----------------------------------------------|


Verse 2:
Gtr I, II

(PM all notes)
e|------------------|
B|------------------|
G|------------------|
D|-0-0-00-0-0-0-0-0-|
A|-0-0-00-0-0-0-0-0-|
D|-0-0-00-0-0-0-0-0-|

Gtr III
e|----|-------------||
B|----|-------------||
G|----|-------------||
D|-12/|-0-0-3\-8b-00||
A|----|-------------||
D|----|-------------||

Repeat Chorus


Bridge 2:

Gtr I

(PM all notes)
e|------------------||
B|------------------||
G|------------------||
D|-0-0-00-0-0-0-0-0-||
A|-0-0-00-0-0-0-0-0-||
D|-0-0-00-0-0-0-0-0-||

Gtr II

e|-----------------------------------------------||
B|--9~----------9~-------------------------------||
G|-10~---------10~---------7~----------7~--------||
D|-------------------------7~----------7~--------||
A|-----------------------------------------------||
D|-----------------------------------------------||

Gtr III
e|----|-------------||
B|----|-------------||
G|----|-------------||
D|-12/|-0-0-3\-8b-00||
A|----|-------------||
D|----|-------------||


Repeat Chorus till end.

__________________________________________________________________________
My first tab! Let me know how bad I suck!
Добавлено: 07.03.2012
Другие материалы по этой песне:
  • Аккорды и текст

Страница создана 07.03.2012
http://primanota.ru/nine-inch-nails/reptile-live-chords.htm
Привет, Гость.
Предлагаем пройти революционный курс по гитаре.
Подарок от PrimaNota.Ru, забирай!