PrimaNota.ru - самый крупный в мире бесплатный архив песенных текстов, аккордов, табулатур и нот


Nine Inch Nails - Deep - текст песни, таба, бас-таба, видео

Регистрация Запомнить меня
Войти через:  Facebook Google Twitter Vk Yandex Mail.ru

Nine Inch Nails - Deep - текст песни, таба, бас-таба, видео

Печатать
Просмотров: 157
Авторы музыки: Trent Reznor

"Deep" by Nine Inch Nails

from "Tomb Raider Soundtrack"

tabbed by peter hate machine aka sui generis 
             (my_own_fall@yahoo.com;  somewhat.damaged@zonebox.com)



tunning - standard half-step down



*intro/verse*
|---------------------------------------
|---------------------------------------
|---------------------------------------
|--2-4-4-2-4--------2-4-4-2-4------2-2--
|---------------------------------------
|------------2\---------------2\--------

you can also play this way if you feel like to:
|---------------------------------------
|---------------------------------------
|---------------------------------------
|---------------------------------------
|--7-9-9-7-9--------7-9-9-7-9------7-7--
|------------2\---------------2\--------


*chorus/interlude*
i know this is synth bass playing but i can't help myself turning it
into 3-string guitar sound  :D
|---------------------------------------
|---------------------------------------
|---------------------------------------
|--7-9-2-2--7-7-9-9-9-9---2-4-4-2-4-----
|--7-9-2-2--7-7-9-9-9-9-----------------
|--5-7-0-0--5-5-7-7-0-7-------------2\--

i did that becoz the actual guitar is in the background and it's 
playing something like:
|-----------------------------------
|-----------------------------------
|--8-8-8-8-9-9-9-9-8-8-8-8-9-9-9-9--
|-----------------------------------
|--6-6-6-6-7-7-7-7-6-6-6-6-7-7-7-7--
|-----------------------------------

it's hard to hear what is really going on w/ that guitar so this is
the best thing i could do


as it's my tradition not to tab out solos and other tiny stuff,i'm
leaving them all to you ;)

have a fooking great time!

                 peter aka sui

==
     
Добавлено: 27.06.2013
Другие материалы по этой песне:

Страница создана 16.03.2012
http://primanota.ru/nine-inch-nails/deep-chords.htm
Привет, Гость.
Предлагаем пройти революционный курс по гитаре.
Подарок от PrimaNota.Ru, забирай!