PrimaNota.ru - самый крупный в мире бесплатный архив песенных текстов, аккордов, табулатур и нот


Nickelback - You remind me - аккорды и текст, видео

Регистрация Запомнить меня
Войти через:  Facebook Google Twitter Vk Yandex Mail.ru

Nickelback - You remind me - аккорды и текст, видео

Печатать
Просмотров: 236
You remind me
Nickelback
-------------------------------
Nickelback - How You Remind Me
-------------------------------

Transcribed by Nayaab Islam
Email: nabsta@hotmail.com

This is the standard tuning version.

Verse:
      "never made it as a wise man, couldnt cut it as
a poor man stealing."
e|------------------------------------------------------------|
G|------------------------------------------------------2-2---|
G|----6-6-6----------------3---------4-4-4--------------2-2---|
D|----6-6-6----------------4---------4-4-4--------------2-2---|
A|----4-4-4----------------2---------2-2-2--------------0-0---|
E|------------------------------------------------------------|
 
repeat 1x


   "And this is how you remind me of what i really am"
e|---------------------------------------------------|
B|---------------------------------------------------|
G|--6-6-----------9-9----------10-10-----------------|
D|--6-6-----------9-9----------10-10-----------------|
A|--4-4-----------7-7----------8--8------------------|
E|---------------------------------------------------|

(Guitar 2)
e|--------4-------------4---------------4------------|
B|------------2-------------2---------------2--------|
G|---------------------------------------------------|
D|---------------------------------------------------|
A|---------------------------------------------------|
E|---------------------------------------------------|

   "This is how you remind me of what i really am"
e|-------------------------------------------------|
G|------------------------------------2-2----------|
G|----6-6-6-----3-3-------4-4-4-------2-2----------|
D|----6-6-6-----4-4-------4-4-4-------2-2----------|
A|----4-4-4-----2-2-------2-2-2-------0-0----------|
E|-------------------------------------------------|
  
   "This is how you remind me of what i really am"
e|-------------------------------------------------|
G|------------------------------------2-2----------|
G|----6-6-6-----3-3-------4-4-4-------2-2----------|
D|----6-6-6-----4-4-------4-4-4-------2-2----------|
A|----4-4-4-----2-2-------2-2-2-------0-0----------|
E|-------------------------------------------------|
  


Chorus
  "It's not like you to say sorry, I was waitin' on a
different story"
e|-------------------------------------------------------------------|
G|--------------------5-5-5----------------------------2-2-2---------|
G|--6-6-6-------------4-4-4---------4-4-4--------------2-2-2---------|
D|--6-6-6-------------2-2-2---------4-4-4--------------2-2-2---------|
A|--4-4-4---------------------------2-2-2--------------0-0-0---------|
E|-------------------------------------------------------------------|
 
  
  "this time I'm mistaken, for handing you a heart
worth breaking.."
e|-------------------------------------------------------------------|
G|--------------------5-5-5----------------------------2-2-2---------|
G|--6-6-6-------------4-4-4---------4-4-4--------------2-2-2---------|
D|--6-6-6-------------2-2-2---------4-4-4--------------2-2-2---------|
A|--4-4-4---------------------------2-2-2--------------0-0-0---------|
E|-------------------------------------------------------------------|


Thanks to Chris Berry's tab for timing.
     
Добавлено: 06.11.2013
Другие материалы по этой песне:
  • Аккорды и текст

Страница создана 19.05.2012
http://primanota.ru/nickelback/you-remind-me-chords.htm
Привет, Гость.
Предлагаем пройти революционный курс по гитаре.
Подарок от PrimaNota.Ru, забирай!