PrimaNota.ru - самый крупный в мире бесплатный архив песенных текстов, аккордов, табулатур и нот


Nickelback - If Everyone Cared - аккорды и текст, таба, бас-таба, видео

Регистрация Запомнить меня
Войти через:  Facebook Google Twitter Vk Yandex Mail.ru

Nickelback - If Everyone Cared - аккорды и текст, таба, бас-таба, видео

Печатать
Просмотров: 4552
If Everyone Cared
Nickelback
Intro/Verse [Guitar 1] - acoustic
|-----------------|----------------|----------------|----------------|
|-----------------|----------------|----------------|----------------|
|-----------------|----------------|----------------|----------------|
|-----4---4h6---6-|----7---7h9---9-|----2---2h4---4-|----4---4h6---4-|
|---4-------------|--7-------------|--2-------------|--4-------------|
|-4-----4-----4---|7-----7-----7---|2-----2-----2---|4-----4-----4---|

From underneath the trees
We watch the sky
Confusin' stars for satalights
I never dreamed that you'd be mine
But hear we are, where hear tonight

Pre Chorus
Singin' a' amen I amen I
I'm alive I'm alive
Singin a' amen I'm alive

Chorus
?                             A
If everyone cared and nobody cried
              Em             F#m
If everyone loved and nobody lied
                          A       
If everyone shared and swallowed their pride
                   Em(let ring)
Then we'd see the day when nobody died

After Chorus [Guitar 1] palm muted (distorted)
e|-----------------|----------------|----------------|----------------|
B|-----------------|----------------|----------------|----------------|
G|-----------------|----------------|----------------|----------------|
D|-----4---6p4---6-|----7---9p7---9-|----2---4p2---4-|----4---6p4---4-|
A|---4-------------|--7-------------|--2-------------|--4-------------|
D|-4-----4-----4---|7-----7-----7---|2-----2-----2---|4-----4-----4---| 
      Amen I ...       Amen I ...       Amen I ...       Amen I ... 

2nd Verse
e|-----------------|----------------|----------------|----------------|
B|-----------------|----------------|----------------|----------------|
G|-----------------|----------------|----------------|----------------|
D|-----4---4h6---6-|----7---7h9---9-|----2---2h4---4-|----4---4h6---4-|
A|---4-------------|--7-------------|--2-------------|--4-------------|
D|-4-----4-----4---|7-----7-----7---|2-----2-----2---|4-----4-----4---|
And In the air the fire flies
Are only light in paradice
We'll show the world that they were wrong
And teach them all to sing along

Pre Chorus
Singin' a' amen I amen I
I'm alive I'm alive
Singin a' amen I'm alive

Chorus
?                             A
If everyone cared and nobody cried
              Em             F#m
If everyone loved and nobody lied
                          A       
If everyone shared and swallowed their pride
                   Em(let ring)
Then we'd see the day when nobody died

I don't the solo as of yet but when I figure it out
I will add it to the tab

3rd Verese
And as we lie beneath the stars
We realize how small we are
If they could love like you and me me 
Imagine what the world could be

Chorus
?                             A
If everyone cared and nobody cried
              Em             F#m
If everyone loved and nobody lied
                          A       
If everyone shared and swallowed their pride
                   Em(let ring)
Then we'd see the day when nobody died

Chorus
?                             A
If everyone cared and nobody cried
              Em             F#m
If everyone loved and nobody lied
                          A       
If everyone shared and swallowed their pride
                   Em(let ring)
Then we'd see the day when nobody died
?             A                Em             F#m  
We'd see the day we'd see the day when nobody died
?             A                Em             F#m
We'd see the day we'd see the day when nobody died
              A              F#m(let ring)                 
we'd see the day when nobody died
Добавлено: 01.06.2012
Другие материалы по этой песне:

Страница создана 21.02.2012
http://primanota.ru/nickelback/if-everyone-cared-chords.htm
Привет, Гость.
Предлагаем пройти революционный курс по гитаре.
Подарок от PrimaNota.Ru, забирай!