PrimaNota.ru - самый крупный в мире бесплатный архив песенных текстов, аккордов, табулатур и нот


Nickelback - Saturday Nights Alright For Fighting - аккорды и текст, таба, бас-таба, видео

Регистрация Запомнить меня
Войти через:  Facebook Google Twitter Vk Yandex Mail.ru

Nickelback - Saturday Nights Alright For Fighting - аккорды и текст, таба, бас-таба, видео

Печатать
Просмотров: 432
Уроки эстрадного вокала в Санкт-Петербурге
Авторы музыки: Elton John
Авторы текста: Bernie Taupin
Saturday Nights Alright For Fighting
Nickelback
NickelBack w/ Kid Rock
Saturday Nights alright for fighting

Intro:

e|--------------------------|
B|-8-8-7---8--8-7---8--8-7--|
G|-7-7-7---7--7-7---7--7-7--|
D|--------------------------|
A|--------------------------|
E|--------------------------|

e|----------------|
B|-6-6-5---6--6-5-|
G|-5-5-5---5--5-5-|
D|----------------|
A|----------------|
E|----------------|

Verse 1

    A
Its getting late i havent seen my date
   G
so tell me when the boys get here
D
seven o'clock, and i wanna rock
     A
wanna get a belly full o' beer

   A
my old man's drunker than a bar full of winos
     G
and his old lady, she don't care.
D
sisters lookin' cute in her braces and boots
A
a handful of grease in her hair

E
oh........


(chorus)
D
don't give us none of your aggravation
       C
we've had it with your discipline
     G
cuz saturday nights alright for fighting
D
get a little action in

D
get about as oiled as a diesel train
C
gonna set this town alight
   G
cuz saturday nights the night I like
D                                    A
saturday nights alright (alright alright)

(D - C-B - A)

wooooooo


Verse 2

         A
p-p-p-p-packed pretty tight in here tonight
    G
im lookin for a woman to see me right
       D
I could use a little muscle to get what i need
   A
i'll drink a fifth of jack and scream out, "Shes with ME!" (?)

   A
a couple of sounds that i really like
         G
are the sounds of a switch-blade and a motorbike
           D
yeah im a juvenile product of the working class
       A
who's best friend flows from the bottom of a glass
E
oh........

(chorus)

D
don't give us none of your aggravation
       C
we've had it with your discipline
     G
cuz saturday nights alright for fighting
D
get a little action in

D
get about as oiled as a diesel train
C
gonna set this town alight
   G
cuz saturday nights the night I like
D                                    A
saturday nights alright (alright alright)

(D - C-B - A)

wooooooo

solo (thru proper intro)

e|--------------------------|
B|-8-8-7---8--8-7---8--8-7--|
G|-7-7-7---7--7-7---7--7-7--|
D|--------------------------|
A|--------------------------|
E|--------------------------|

e|--------------------------|
B|-6-6-5---6--6-5---6--6-5--|
G|-5-5-5---5--5-5---5--5-5--|
D|--------------------------|
A|--------------------------|
E|--------------------------|

e|-----------------------------------------------------|
B|-13-13-12---13--13-12---13--13-12-----8-8-7---8--8-7-|
G|-12-12-12---12--12-12---12--12-12-----7-7-7---7--7-7-|
D|-----------------------------------------------------|
A|-----------------------------------------------------|
E|-----------------------------------------------------|


E
oh....

(chorus)
D
don't give us none of your aggravation
       C
we've had it with your discipline
     G
cuz saturday nights alright for fighting
D
get a little action in

D
get about as oiled as a diesel train
C
gonna set this town alight
   G
cuz saturday nights the night I like
D
saturday nights alright

Outtro

D
saturday, saturday, saturday
C
saturday, saturday, saturday
G                             D
saturday, saturday, saturday nights alright....

X3
Добавлено: 14.05.2012
Другие материалы по этой песне:

Страница создана 12.03.2012
http://primanota.ru/nickelback/saturday-nights-alright-for-fighting-chords.htm
Привет, Гость.
Предлагаем пройти революционный курс по гитаре.
Подарок от PrimaNota.Ru, забирай!