PrimaNota.ru - самый крупный в мире бесплатный архив песенных текстов, аккордов, табулатур и нот


Nickelback - Dark Horse - таба, видео

Регистрация Запомнить меня
Войти через:  Facebook Google Twitter Vk Yandex Mail.ru

Nickelback - Dark Horse - таба, видео

Печатать
Просмотров: 346
Уроки эстрадного вокала в Санкт-Петербурге
#1:something your mouth
*=Artificial harmonic
/or\=Slide
b=Bend
h=hammer
p=pull

Funny song.

Intro part 1 (really gritty clean tone. Turn your treble way up)
e------|---------------------------------|
B------|---------------------------------|
G------|---------------------------------|
D------|---------------------------------|
A--/12-|0-0----3--0----3--0----3--0----5-|
D--/12-|0-0-/5----0-/5----0-/5----0-/5---|

Intro part 2 (2nd guitar enters w/feedback and dirty tone)
e--------------|-------------------------------------------|----------------|
B--------------|-------------------------------------------|----------------|
G--------------|-------------------------------------------|----------------|
D--------------|-------------------------------------------|----------------|
A------3-5-4-3-|-0-0----3-x-x-0----3-x-x-0----3-x-x-0----5-|-3----0-3-5-4-3-|
D--12\---5-4-3-|-0-0-/5---x-x-0-/5---x-x-0-/5---x-x-0-/5---|---5*-0---5-4-3-|
         p.m.-

Intro part 3 (dirty guitar with delay and lots of reverb)
e-------|
B--13---|
G--15b--| Bend and release this a few times. This will be repeated several
D-------| times throughout the song. It sounds sort of like a siren.
A-------|
D-------|

Verse (slightly dirty guitar w/envelope filter)
e------------------------------------------|------------|
B------------------------------------------|------------|
G------------------------------------------|------------|
D------------------------------------------|------------|
A--5-5--5----------5--5-------------5------|----3-5-4-3-|
D--0-------0--0--0-------0--0--0--0---0--0-|12\---5-4-3-|

Verse (This guitar is hard to hear, but it's there) (dirty tone)
e--------------------------------------------------------|
B--------------------------------------------------------|
G--10p9-x-x-9-x-x-10p9-x-x-9-x-x-10p9-x-x-9-x-x-10-x-x-9-|
D--------------------------------------------------------|
A--------------------------------------------------------|
D--------------------------------------------------------|

Chorus ending ("so much cooler"...)
e------------------------------------------------|
B-------------------------------8-8-8-8-8-8-8----|
G--5-5-5-5-5-5-5-3/5-5-5-5-5----7-7-7-7-7-7-7----|
D--5-5-5-5-5-5-5-3/5-5-5-5-5-3--5-5-5-5-5-5-5-3\-|
A--3-3-3-3-3-3-3-1/3-3-3-3-3-3--5-5-5-5-5-5-5-3\-|
D----------------------------3--5-5-5-5-5-5-5-3\-|

Bridge (clean tone w/very little distortion) (guitar 2 in parenthesis)
e--------------------------------------------------------------------|
B--------------------------------------------------------------------|
G--------------------------------------------------------------------|
D----------------3--3-----5-5--------------------3--3-----5-5--------|
A------5-5-3-3-5-5----3-3-----3(3*b)-3-5-5-3-3-5-5----3-3-----3(3*B)-|
D--0-0-----------0-----------------0-0-----------0-------------------|

@ around 2:42 this guitar comes in (it's hard to hear) w/wah:
e--------|
B--------|
G--10-10-|
D--------|
A--8--8--|
D--------|

2:54 cool guitar part: (2nd one is the way I like to play it)
e----------------------------------|---------------------------------------|
B----------------------------------|---------------------------------------|
G--------------------------------- or -------------------------------------|
D--3p0-----------------------------|---------------------------------------|
A------3---5---5-3-----------------|---------------------------------------|
D--------0---0-----0-0-3p0-3/5-3p0-|-15-12-10p0-12p0-12p10-0-0-3p0-3/5-3p0-|

End song on:
e-----
B-----
G-----
D--3\-
A--3\-
D--3\-



#2:burn it to the ground
/or\=slide
h=hammer
p=pull
b=bend
r=release
*=palm mute
~=vibrate

My new party anthem.

Intro part 1:
eb-------|-----------------------------------------------------|
Bb-------|-----------------------------------------------------|
Gb-------|-----------------------------------------------------|
Db-------|-----------------------------------------------------|
Ab-------|------------------------------------------8-------10-|
Db--/19\-|-0-0-15p0-0-12~0-15p0-0-12~0-15p0-0-10h12---12p10----|

Intro part 2:
eb-------------------------------------------------------|
Bb-------------------------------------------------------|
Gb-------------------------------------------------------|
Db-------------------------------------------------------|
Ab-------------------------------------------15----------|
Db--0-0-15p0-0-12~0-15p0-0-12~0-15p0-0-17/19----19\17p15-|

Intro part 3:
eb------------------------------------------------------------|
Bb------------------------------------------------------------|
Gb------------------------------------------------------------|
Db------------------------------------------------------------|
Ab------------------------------------------------------------|
Db--0-0-0h10h12--0-0-0h10h12--0-0-0h10h12--/17p15-0-17p15-17b-|
      *            *            *
Intro part 4:
eb-----------------------------------------------------|
Bb-----------------------------------------------------|
Gb-----------------------------------------------------|
Db-----------------------------------------------------|
Ab---------------------------------------------6-5-4-3-|
Db--0-0-0h10h12--0-0-0h10h12--0-0-0h10h12-10p0-6-5-4-3-|
      *            *            *              * * * *
Verse:
eb-------------------------------------------------------------------------|
Bb-------------------------------------------------------------------------|
Gb-------------------------------------------------------------------------|
Db-------------------------------------------------------------------------|
Ab----------------------8-------10-----------------------------------------|
Db----12----12----10h12---12p10------0-0-0h10h12--0-0-0h10h12--0-0-0h10h12-|
                                       *            *            *
eb-------------------------------------------------------------------------|
Bb-------------------------------------------------------------------------|
Gb-------------------------------------------------------------------------|
Db-------------------------------------------------------------------------|
Ab----------------------------------------3--------------------------------|
Db--/17p15-0-17p15-17b----12----12----3/5---5\3p0-0-0-0h10h12--0-0-0h10h12-|
                                                    *            *
eb--------------------------|
Bb--------------------------|
Gb--------------------------|
Db--------------------------| Repeat
Ab--------------------------|
Db--0-0-0h10h12-5br-3-5br-3-|
      *
Chorus: (I'm not listing the number of times each chord is played)
eb------------------------|
Bb------------------------|
Gb--7----5----------------|
Db--7----5----5----3------|
Ab--5----3----5----3------|
Db------------5----3--10b-|
                        ^slow bend
Small interlude between 2nd chorus and solo:
Guitar 1:
eb------------------------------------------------|
Bb------------------------------------------------|
Gb----------------------10---------------------10-|
Db--12-10------------10----12-10------------10----|
Ab--------10-8-10-12-------------10-8-10-12-------|
Db------------------------------------------------|

Guitar 2: (w/Wah)
eb----------------------------------------------|
Bb----------------------------------------------|
Gb----------------------------------------------|
Db-----------------------3----------------------|
Ab--5--3--------------3-----5--3-------------3/-|
Db--------5--3--5--7--------------5-3--5--7-----|

Bridge rhythm:
eb---------------------------------|
Bb---------------------------------|
Gb---------------------------------|
Db--7---5--------------10-------10-|Repeat
Ab--5---3--7---6---5---8--10----8--|
Db----0----7---6---5-0----10--0----|
      *              *        *
solo: (w/Wah) the wah makes the solo. Chad is constantly pushing the toe
forward and back in an unorganized fashion. Just be messy with your pedal
and play something like the following and you'll do fine:
eb------------------------------------------------------------------------|
Bb---------------------------------------------------------------10h13p10-|
Gb----------------------------10--12br-12r-12r-12r-12r-12~~~--12b---------|
Db---------------------10-12~---------------------------------------------|
Ab--12~~~-12~-12~-12~~----------------------------------------------------|
Db------------------------------------------------------------------------|
                                     ^slowly release this bend

eb----------------------------------------------------------------------|
Bb----10h13p10--10h13p10--10h13p10--10h13p10h13p10--10h13p10---10h13p10-|
Gb--12--------12--------12--------12--------------12---------12---------|
Db----------------------------------------------------------------------|
Ab----------------------------------------------------------------------|
Db----------------------------------------------------------------------|

eb----------------13-15b-15r~-15r~-15r~-15r~-15r-15r-15\---|
Bb--13p10-13b--15------------------------------------------|
Gb---------------------------------------------------------|"hahahahahaha"
Db---------------------------------------------------------|
Ab---------------------------------------------------------|
Db---------------------------------------------------------|
                       ^slowly release this bend
End on:
eb----------------------------------------------------------------|
Bb----------------------------------------------------------------|
Gb----------------------------------------------------------------|
Db----------------------------------------------------------------|
Ab--------------------------3-6-5-4-3-0-3-6-5-4-3-0-3-6-5-4-3-0-0-|
Db--5br-3-5br-3-5br-3-5br-3---6-5-4-3-0---6-5-4-3-0---6-5-4-3-0-0-|
                              * * * * *   * * * * *   * * * * *

I think that's everything. If I missed anything or if anybody has
suggestions either email me or comment on the tab.


#3: gotta be somebody
Intro/Verse x2
e|------------------------------| Not exact number of times picked!
b|------------------------------|
G|--99999--77777--22222--55555--|
D|--99999--77777--22222--55555--|
A|--77777--55555--00000--33333--|
E|------------------------------|

Pre-Chorus x1
e|-----------------------------------| Not exact number of times picked!
b|-----------------------------------|
G|--77777--1010101010--1212121212----|
D|--77777--1010101010--1212121212----|
A|--55555--8-8-8-8-8---1010101010----|
E|-----------------------------------|

Chorus x2
e|-----------------------------| Not exact number of times picked!
b|-----------------------------|
G|-55555-----------------------|
D|-55555--55555--77777--33333--|
A|-33333--55555--77777--33333--|
E|--------33333--55555--11111--|

Verse 2 x1
e|------------------------------| Not exact number of times picked!
b|------------------------------|
G|--99999--77777--22222--55555--|
D|--99999--77777--22222--55555--|
A|--77777--55555--00000--33333--|
E|------------------------------|

Pre-Chorus x1
e|-----------------------------------| Not exact number of times picked!
b|-----------------------------------|
G|--77777--1010101010--1212121212----|
D|--77777--1010101010--1212121212----|
A|--55555--8-8-8-8-8---1010101010----|
E|-----------------------------------|

Chorus x2
e|-----------------------------| Not exact number of times picked!
b|-----------------------------|
G|-55555-----------------------|
D|-55555--55555--77777--33333--|
A|-33333--55555--77777--33333--|
E|--------33333--55555--11111--|

Breakdown Bit Is Same As Chorus x1 "You cant give up...."
e|-----------------------------|
b|-----------------------------| Not exact number of times picked!
G|-55555-----------------------|
D|-55555--55555--77777--33333--|
A|-33333--55555--77777--33333--|
E|--------33333--55555--11111--|

Last Chorus x2
e|-----------------------------| Not exact number of times picked!
b|-----------------------------|
G|-55555-----------------------|
D|-55555--55555--77777--33333--|
A|-33333--55555--77777--33333--|
E|--------33333--55555--11111--|

End With
e|-----------------------------|
b|-----------------------------|
G|-5---------------------------|
D|-5---------------------------|
A|-3---------------------------|
E|-----------------------------|


#4:I'd come for you
INTRO
Bm  G6  Dsus2  A

VERSE1
              Bm                        G6
Just one more moment, that
Добавлено: 01.10.2013
Другие материалы по этой песне:
  • Аккорды и текст

Страница создана 01.10.2013
http://primanota.ru/nickelback/dark-horse-chords.htm
Привет, Гость.
Предлагаем пройти революционный курс по гитаре.
Подарок от PrimaNota.Ru, забирай!