PrimaNota.ru - самый крупный в мире бесплатный архив песенных текстов, аккордов, табулатур и нот


Nick Drake - Tow The Line - текст песни, таба, видео

Регистрация Запомнить меня
Войти через:  Facebook Google Twitter Vk Yandex Mail.ru

Nick Drake - Tow The Line - текст песни, таба, видео

Печатать
Просмотров: 130
Tow The Line by Nick Drake from the album ?I was made to love magic?2004
This entirely the work of ...
Capo 3rd Fret
Intro
   Gm7                      Csus2+4/G  Gm7
G------3-----3-|-----3-----3-|-----------3-|-----3-----3-|
D------3-----3-|-----3-----3-|----(0)----3-|-----3-----3-|
Bb-----4-----4-|-----4-----4-|-----2-----4-|-----4-----4-|
F--------------|-------------|-----0-------|-------------|
C--------------|-------------|-------------|-------------|
G--0-0-0-0-0-0-|-0-0-0-0-0-0-|-0-0-0-0-0-0-|-0-0-0-0-0-0-|
         Csus2+4/G  
G------3-------|
D------3----(0)|
Bb-----4-----2-|  x2
F------------0-|
C--------------|
G--0-0-0-0-0-0-|
       Today is the day........
   Gm7          Gm6               GminAug5       Gm
G------3-----3-|-----3-----3-|-----3-----3-|-----3-----3--|
D------3-----3-|-----2-----2-|-----2-----1-|-----1-----0--|
Bb-----4-----4-|-----4-----4-|-----4-----4-|-----4-----4--|
F--------------|-------------|-------------|--------------|
C--------------|-------------|-------------|--------------|
G--0-0-0-0-0-0-|-0-0-0-0-0-0-|-0-0-0-0-0-0-|-0-0-0-0-0-0--|

G------3-----3-|-----3--
D------0-----0-|-----0--
Bb-----4-----4-|-----4--    x4
F--------------|--------
C--------------|--------
G--0-0-0-0-0-0-|-0-0-0--
       If you call I will follow...     The Bb may be 3x043x
    D5                                C             Bb  
G--------------|-------------|-------------|--------------|
D------0-----0-|-----0-----0-|-----0-----2-|-----2-----3--|
Bb-----4-----4-|-----4-----4-|-----4-----2-|-----2-----0--|
F------4-----4-|-----4-----4-|-----4-----2-|-----2-----0--|
C--0-2-2-2-2-2-|-2-2-2-2-2-2-|-2-2-2-0-0-0-|-0-0-0----(5)-|
G--------------|-------------|-------------|-------3-3-3--|

           Gm7                       Csus2+4/G    Gm7  
G------------3-|-----3-----3-|-----3-------|-----------3--|
D------3-----3-|-----3-----3-|-----3-------|-----0-----3--|
Bb-----0-----4-|-----4-----4-|-----4-----2-|-----2-----4--|
F------0----(2)|----(2)---(2)|----(2)----0-|-----0----(2)-|
C-----(5)------|-------------|-------------|--------------|
G--3-3-3-0-0-0-|-0-0-0-0-0-0-|-0-0-0-0-0-0-|-0-0-0-0-0-0--|

                        Csus2+4/G     Gm7
G------3-----3-|-----3-------|-----------3--|
D------3-----3-|-----3-------|-----0-----3--|
Bb-----4-----4-|-----4-----2-|-----2-----4--|
F-----(2)---(2)|----(2)----0-|-----0----(2)-|
C--------------|-------------|--------------|
G--0-0-0-0-0-0-|-0-0-0-0-0-0-|-0-0-0-0-0-0--|


________________________________________
     
Добавлено: 29.09.2013
Другие материалы по этой песне:

Страница создана 17.05.2012
http://primanota.ru/nick-drake/tow-the-line-chords.htm
Привет, Гость.
Предлагаем пройти революционный курс по гитаре.
Подарок от PrimaNota.Ru, забирай!