PrimaNota.ru - самый крупный в мире бесплатный архив песенных текстов, аккордов, табулатур и нот


Nick Cave - The Proposition 1 (feat. Warren Ellis) - таба, видео

Регистрация Запомнить меня
Войти через:  Facebook Google Twitter Vk Yandex Mail.ru

Nick Cave - The Proposition 1 (feat. Warren Ellis) - таба, видео

Печатать
Просмотров: 81
Song: The Proposition #1
Artists: Nick Cave & Warren Ellis
Album: The Proposition Soundtrack
Year: 2005
Tabber: beranger80@hotmail.com




Intro (0:00)

Cm



Violin riffs (0:27)

e-------------|-------------|-------------|-------------|
b--------1-1--|--------3-3--|-------------|--------1-1--|
g--0-1-0------|--0-1-0------|--0-1-0-3-3--|--0-1-0------|
d-------------|-------------|-------------|-------------|
a-------------|-------------|-------------|-------------|
e-------------|-------------|-------------|-------------|

0:58
e--------3-3--|--8-8--|--10--------------|--8-10------------|
b--3-4-3------|-------|------------------|------------------|
g-------------|-------|-----10-10-12-12--|-------10--12-12--|
d-------------|-------|------------------|------------------|
a-------------|-------|------------------|------------------|
e-------------|-------|------------------|------------------|

1:39
e--------3-3--|--------3-3--|-------------|
b--3-4-3------|--3-4-3------|--------1-1--|
g-------------|-------------|--0-1-0------|
d-------------|-------------|-------------|
a-------------|-------------|-------------|
e-------------|-------------|-------------|



Transition (1:58)

Cm


Piano Chords (2:31)

G#  Gm  Cm
G#  Gm  Cm
G#  Gm  Cm
G#  Gm  Cm



Outro (3:00)

Cm
Добавлено: 14.07.2015
Другие материалы по этой песне:
  • Аккорды и текст

Страница создана 14.07.2015
http://primanota.ru/nick-cave/proposition-1-chords.htm
Привет, Гость.
Предлагаем пройти революционный курс по гитаре.
Подарок от PrimaNota.Ru, забирай!