PrimaNota.ru - самый крупный в мире бесплатный архив песенных текстов, аккордов, табулатур и нот


Newsboys - Good Stuff - текст песни, таба, видео

Регистрация Запомнить меня
Войти через:  Facebook Google Twitter Vk Yandex Mail.ru

Newsboys - Good Stuff - текст песни, таба, видео

Печатать
Просмотров: 101
Авторы: Phil Joel, Peter Furler

Song: Good Stuff
Artist: Newsboys
Album: Love Liberty Disco
Tabbed by Josh Benjamin
E-mail: Benji07@juno.com

Here's the song.  I hope this tab will help you.  Listen to the Chorus
because there are two guitar part, both of which I've included.  I've
also tabbed two of the Riffs during the bridge.  If you find any
mistakes, e-mail me.

Intro and Verse:
E-----------------
B-----------------
G-----------------
D----------5-5/7--
A------5h7-3-3/5--
E--5h7------------

Chorus:
E-------------------
B-------------------
G--5-5-x-x-x-x-5-5--
D--5-5-x-x-x-x-5-5--
A--3-3-x-x-x-x-3-3--
E-------------------

E--7-7-7-----7-7-7-----7/12--
B--------8---------8---------
G----------9---------9-------
D----------------------------
A----------------------------
E----------------------------

Bridge:
1:42
E--------14-12--
B--10b12--------
G---------------
D---------------
A---------------
E---------------

1:50
E--------10---------
B--10b12---(12)b10--
G-------------------
D-------------------
A-------------------
E-------------------

Thats it!  You can play along with the CD.  God Bless!  > 
     
Добавлено: 25.11.2013
Другие материалы по этой песне:
  • Аккорды и текст

Страница создана 14.06.2012
http://primanota.ru/newsboys/good-stuff-chords.htm
Привет, Гость.
Предлагаем пройти революционный курс по гитаре.
Подарок от PrimaNota.Ru, забирай!