PrimaNota.ru - самый крупный в мире бесплатный архив песенных текстов, аккордов, табулатур и нот


Newsboys - I Would Give Everything - текст песни, таба, видео

Регистрация Запомнить меня
Войти через:  Facebook Google Twitter Vk Yandex Mail.ru

Newsboys - I Would Give Everything - текст песни, таба, видео

Печатать
Просмотров: 89
Авторы: Phil Joel, Peter Furler

Song: I Would Give Everything
Artist: Newsboys
Album: Love Liberty Disco
Tabbed by Josh Benjmain
E-mail: Benji07@juno.com

This is my very first tab, and I'm pretty sure its right.  If you find a
mistake, e-mail me. Listen to the CD for the flow of the song. I hope
this helps. 

Intro and Chorus:
   pm------
E--------------7----------
B------------5---5-4-5-4--
G--4-4-4-4----------------
D-------------------------
A-------------------------
E-------------------------

Verse:
E--------------------
B----4-5-7-5-4-------
G--4-----------5-4---
D--------------------
A--------------------
E--------------------

  pm-----------
E----------------
B----------------
G----------------
D--5-4----4------
A-------5---5-3--
E----------------

  pm--------
E---------------
B---------------
G------------4--
D--5-4---4------
A------5---5----
E---------------

Bridge:
E--7-6-6-7-7/12--
B--6-5-----------
G----------------
D----------------
A----------------
E----------------

Well, thats about it.  E-mail me if you have questions.  > 
________________________________________________________________
     
Добавлено: 29.09.2013
Другие материалы по этой песне:
  • Аккорды и текст

Страница создана 14.03.2012
http://primanota.ru/newsboys/i-would-give-everything-chords.htm
Привет, Гость.
Предлагаем пройти революционный курс по гитаре.
Подарок от PrimaNota.Ru, забирай!