PrimaNota.ru - самый крупный в мире бесплатный архив песенных текстов, аккордов, табулатур и нот


New Found Glory - Catalyst - таба, видео

Регистрация Запомнить меня
Войти через:  Facebook Google Twitter Vk Yandex Mail.ru

New Found Glory - Catalyst - таба, видео

Печатать
Просмотров: 107
Artist: A New Found Glory
Album: Catalyst 
Year Released: 2004
Tabber: Nick H. (omega_storm)

I know the songs "Radio Adelaide" and "Constant Static" are not included.
I tabbed this off my copy, which didn't have those songs. So if you're
looking for those, you'll have to go somewhere else. Also, I didn't tab
the hidden tracks, because there's really nothing to tab. Anyways, have
fun with this!

*= both/all guitar parts tabbed
(all lyrics included)
1. Intro
2. All Downhill From Here*
3. This Disaster*
4. Truth of My Youth*
5. I Don't Wanna Know*
6. Your Biggest Mistake*
7. Doubt Full
8. Failure's Not Flattering (What's Your Problem?)
9. Over The Head, Below the Knees
10. Ending in Tragedy
11. At Least I'm Known For Something*
12. I'd Kill To Fall Asleep*
13. No News Is Good News*
14. Who Am I?
  I. Hidden Track #1
  II. Hidden Track #2
----------------------------------------------------------------------------
1. Intro

(open with a lot of feedback)

Intro - Gt 1/Gt 2
e-Gt1/Gt2-|--Gt1-|--------|
B---------|------|--------|
G---66----|------|-6-6-6--|
D---66----|-6677-|-6-6-6--|
A---44----|-6677-|-4-4-4--|
E---------|-4455-|--------|
|       x3       |   x1   |

Verse
e---x3----|---x1----|---x3----|------------|
B---------|---------|---------|------------|
G-66------|---------|-66------|------------|
D-66-6677-|-444777--|-66-6677-|-444777-6*--|
A-44-6677-|-444777--|-44-6677-|-444777-6*--|
E----4455-|-222555--|----4455-|-222555-4*--|

Chorus
e---------------|x4
B---------------|
G---------22----|
D-2-66-44-22-2--|
A-2-66-44-00-2--|
E-0-44-22----0--|

Outro
e---------|-----------|
B---------|-----------|
G-66------|--------6--|
D-66-6677-|-444777-6--|
A-44-6677-|-444777-4--|
E----4455-|-222555----|
|   x3    |    x1     |

----------------------------------------------------------------------------
2. All Downhill From Here

Tuning: EBGDAE

/ = SLIDE UP
\ = SLIDE DOWN
h = HAMMER ON
p = PULL OFF
. = PALM MUTE

--------------------
Intro:
--------------------

Guitar 1
E|--------------|-------------|--------------|-------------|
B|--------------|-------------|--------------|-------------|
G|--------------|-------------|--------------|-------------|
D|----6/7-------|----6\4--4---|----6/7-------|----6\4--4/6-|
A|-4--4/5--7--7-|-7--4\2--2-0-|-4--4/5--7--7-|-7--4\2--2/4-|
E|-2-------5--5-|-5-----------|-2-------5--5-|-5-----------|

Guitar 2
E|--------------|-------------|----------------|---------------|
B|--------------|-------------|----------------|---------------|
G|----6/7-------|----6\4--4\2-|-11--9/11--9--9-|-9-------------|
D|-4--x----7--7-|-7--x----x---|--x--x-----x--x-|-x--11\9--9/11-|
A|-x--4/5--x--x-|-x--4\2--2\0-|--9--7/-9--7--7-|-7---x----x----|
E|-2-------5--5-|-5-----------|----------------|-----9\7--7/-9-|

Guitar 1
E|--------------|-------------|--------------|-------------|
B|--------------|-------------|--------------|-------------|
G|--------------|-------------|--------------|-------------|
D|----6/7-------|----6\4--4---|----6/7-------|----6\4--4/6-|
A|-4--4/5--7--7-|-7--4\2--2-0-|-4--4/5--7--7-|-7--4\2--2/4-|
E|-2-------5--5-|-5-----------|-2-------5--5-|-5-----------|

Guitar 2
E|----------------|----------------|----------------|---------------|
B|----------------|----------------|----------------|---------------|
G|-11--9/11--9--9-|-9--------13/14-|-11--9/11--9--9-|-9-------------|
D|--x--x-----x--x-|-x--11\9---x----|--x--x-----x--x-|-x--11\9--9/11-|
A|--9--7/-9--7--7-|-7---x----11/12-|--9--7/-9--7--7-|-7---x----x----|
E|----------------|-----9\7--------|----------------|-----9\7--7/-9-|


--------------------
Verse:
--------------------

Guitar 1 (A flanger effect it used.)
E|------------------|------------------|
B|------------------|------------------|
G|------------------|------------------|
D|------------------|------------------|
A|----------5-5-5-5-|----------2-2-2-2-|
E|-2-2-2-2----------|-5-5-5-5----------|
   . . . .  . . . .   . . . .  . . . .

Guitar 2
E|------------------|------------------|
B|------------------|------------------|
G|------------------|------------------|
D|------------------|------------------|
A|------------------|------------------|
E|------------------|------------------|

Guitar 1
E|------------------|------------------|
B|------------------|------------------|
G|------------------|------------------|
D|------------------|------------------|
A|----------5-5-5-5-|----------2-2-2-2-|
E|-2-2-2-2----------|-5-5-5-5----------|
   . . . .  . . . .   . . . .  . . . .

Guitar 2
E|------------------|------------------|
B|------------------|------------------|
G|------------------|------------------|
D|------------------|------------------|
A|------------------|------------------|
E|------------------|------------------|

Guitar 1
E|------------------|------------------|
B|------------------|------------------|
G|------------------|------------------|
D|------------------|------------------|
A|----------5-5-5-5-|----------2-2-2-2-|
E|-2-2-2-2----------|-5-5-5-5----------|
   . . . .  . . . .   . . . .  . . . .

Guitar 2
E|------------------|------------------|
B|------------------|------------------|
G|------------------|------------------|
D|------------------|------------------|
A|------------------|------------------|
E|------------------|------------------|

Guitar 1
E|------------------|------------|
B|------------------|------------|
G|------------------|------------|
D|------------------|----------4-|
A|-2-2-4-4--4-4-5-5-|-0-0-0-0--2-|
E|------------------|------------|
   . . . .  . . . .   . . . .

Guitar 2
E|------------------|------------|
B|------------------|------------|
G|------------------|------------|
D|------------------|------------|
A|------------------|------------|
E|------------------|------------|


--------------------
Pre-Chorus:
--------------------

Guitar 1
E|------------------|------------------|
B|------------------|------------------|
G|----------7-7-7---|----------4-4-4---|
D|-4-4-4----7-7-7---|-7-7-7----4-4-4---|
A|-4-4-4----5-5-5-0-|-7-7-7----2-2-2-0-|
E|-2-2-2-0----------|-5-5-5-0----------|

Guitar 2
E|----------------------|----------------------|
B|----------------------|----------------------|
G|-11-11-11--9--7-7-7-7-|-9-9-9-9--11-11-11-11-|
D|--x--x--x--x--x-x-x-x-|-x-x-x-x---x--x--x--x-|
A|--9--9--9--7--5-5-5-5-|-7-7-7-7---9--9--9--9-|
E|----------------------|----------------------|

Guitar 1
E|------------------|------------------|
B|------------------|------------------|
G|----------7-7-7---|----------4-4-4---|
D|-4-4-4----7-7-7---|-7-7-7----4-4-4---|
A|-4-4-4----5-5-5-0-|-7-7-7----2-2-2-0-|
E|-2-2-2-0----------|-5-5-5-0----------|

Guitar 2
E|----------------------|----------------------|
B|----------------------|----------------------|
G|-11-11-11--9--7-7-7-7-|-9-9-9-9--11-11-11-11-|
D|--x--x--x--x--x-x-x-x-|-x-x-x-x---x--x--x--x-|
A|--9--9--9--7--5-5-5-5-|-7-7-7-7---9--9--9--9-|
E|----------------------|----------------------|

Guitar 1
E|------------------|------------------|
B|------------------|------------------|
G|----------7-7-7---|----------4-4-4---|
D|-4-4-4----7-7-7---|-7-7-7----4-4-4---|
A|-4-4-4----5-5-5-0-|-7-7-7----2-2-2-0-|
E|-2-2-2-0----------|-5-5-5-0----------|

Guitar 2
E|--------------------------|------------------|
B|--------------------------|------------------|
G|-11-11-11--9--11-11-11-11-|-6-6-6-6--4-4-4---|
D|--x--x--x--x---x--x--x--x-|-x-x-x-x--x-x-x---|
A|--9--9--9--7---9--9--9--9-|-4-4-4-4--2-2-2-0-|
E|--------------------------|------------------|

Guitar 1
E|------------------|---|
B|------------------|---|
G|----------7-7-7---|-4-|
D|-4-4-4----7-7-7---|-4-|
A|-4-4-4----5-5-5-0-|-2-|
E|-2-2-2-0----------|---|

Guitar 2
E|-------------------------|---|
B|-------------------------|---|
G|-11-11-11--9--7-7-7-7--6-|-4-|
D|--x--x--x--x--x-x-x-x--x-|-x-|
A|--9--9--9--7--5-5-5-5--4-|-2-|
E|-------------------------|---|


--------------------
Chorus:
--------------------

Guitars 1 & 2
E|-0--0-0-0-0-0-0-|-0--0-0-0-0-0-0-|-2--2-2-2-2-2-2-|-0--0-0-0-0-0-0-|
B|-2--2-2-2-2-2-2-|-3--3-3-3-3-3-3-|-2--2-2-2-2-2-2-|-0--0-0-0-0-0-0-|
G|-2--2-2-2-2-2-2-|-2--2-2-2-2-2-2-|-2--2-2-2-2-2-2-|-1--1-1-1-1-1-1-|
D|-2--2-2-2-2-2-2-|-0--0-0-0-0-0-0-|-4--4-4-4-4-4-4-|-2--2-2-2-2-2-2-|
A|-0--0-0-0-0-0-0-|-0--0-0-0-0-0-0-|-4--4-4-4-4-4-4-|-2--2-2-2-2-2-2-|
E|----------------|----------------|-2--2-2-2-2-2-2-|-0--0-0-0-0-0-0-|

Guitar 3
E|-5--5-5-5-5-5-5-|-5--5-5-5-5-5-5-|-5--5-5-5-5-5-5-|-5--5-5-5-5-5-5-|
B|-5--5-5-5-5-5-5-|-5--5-5-5-5-5-5-|-7--7-7-7-7-7-7-|-5--5-5-5-5-5-5-|
G|-6--6-6-6-6-6-6-|-7--7-7-7-7-7-7-|-6--6-6-6-6-6-6-|-4--4-4-4-4-4-4-|
D|----------------|----------------|----------------|----------------|
A|----------------|----------------|----------------|----------------|
E|----------------|----------------|----------------|----------------|

Guitars 1 & 2
E|-0--0-0-0-0-0-0-|-0--0-0-0-0-0-0-|-2--2-2-2-2-2-2-|-0--0-0-0-0-0-0-|
B|-2--2-2-2-2-2-2-|-3--3-3-3-3-3-3-|-2--2-2-2-2-2-2-|-0--0-0-0-0-0-0-|
G|-2--2-2-2-2-2-2-|-2--2-2-2-2-2-2-|-2--2-2-2-2-2-2-|-1--1-1-1-1-1-1-|
D|-2--2-2-2-2-2-2-|-0--0-0-0-0-0-0-|-4--4-4-4-4-4-4-|-2--2-2-2-2-2-2-|
A|-0--0-0-0-0-0-0-|-0--0-0-0-0-0-0-|-4--4-4-4-4-4-4-|-2--2-2-2-2-2-2-|
E|----------------|----------------|-2--2-2-2-2-2-2-|-0--0-0-0-0-0-0-|

Guitar 3
E|-5--5-5-5-5-5-5-|-5--5-5-5-5-5-5-|-5--5-5-5-5-5-5-|-5--5-5-5-5-5-5-|
B|-5--5-5-5-5-5-5-|-5--5-5-5-5-5-5-|-7--7-7-7-7-7-7-|-5--5-5-5-5-5-5-|
G|-6--6-6-6-6-6-6-|-7--7-7-7-7-7-7-|-6--6-6-6-6-6-6-|-4--4-4-4-4-4-4-|
D|----------------|----------------|----------------|----------------|
A|----------------|----------------|----------------|----------------|
E|----------------|----------------|----------------|----------------|

Guitar 1
E|-0--0-0-0-0-0-0-|-0--0-0-0-0-0-0-|-2--2-2-2-2-2-2-|-0--0-0-0-0-0-0-|
B|-2--2-2-2-2-2-2-|-3--3-3-3-3-3-3-|-2--2-2-2-2-2-2-|-0--0-0-0-0-0-0-|
G|-2--2-2-2-2-2-2-|-2--2-2-2-2-2-2-|-2--2-2-2-2-2-2-|-1--1-1-1-1-1-1-|
D|-2--2-2-2-2-2-2-|-0--0-0-0-0-0-0-|-4--4-4-4-4-4-4-|-2--2-2-2-2-2-2-|
A|-0--0-0-0-0-0-0-|-0--0-0-0-0-0-0-|-4--4-4-4-4-4-4-|-2--2-2-2-2-2-2-|
E|----------------|----------------|-2--2-2-2-2-2-2-|-0--0-0-0-0-0-0-|

Guitar 2
E|----------------|----------------|----------------|-------------|
B|-------------5--|-------------0--|-------------5--|-------2-----|
G|-6-----6--------|-6-----6--------|-6-----6--------|-----2---2-4-|
D|---7-------7----|---7-------7----|---7-------7----|-2h4---------|
A|-----0---0------|-----0---0------|-----0---0------|-------------|
E|----------------|----------------|----------------|-------------|

Guitar 3
E|-5--5-5-5-5-5-5-|-5--5-5-5-5-5-5-|-5--5-5-5-5-5-5-|-5--5-5-5-5-5-5-|
B|-5--5-5-5-5-5-5-|-5--5-5-5-5-5-5-|-7--7-7-7-7-7-7-|-5--5-5-5-5-5-5-|
G|-6--6-6-6-6-6-6-|-7--7-7-7-7-7-7-|-6--6-6-6-6-6-6-|-4--4-4-4-4-4-4-|
D|----------------|----------------|----------------|----------------|
A|----------------|----------------|----------------|----------------|
E|----------------|----------------|----------------|----------------|

Guitar 1
E|-0--0-0-0-0-0-0-|-0--0-0-0-0-0-0-|-2--2-2-2-2-2-2-|----------------------|
B|-2--2-2-2-2-2-2-|-3--3-3-3-3-3-3-|-2--2-2-2-2-2-2-|----------------------|
G|-2--2-2-2-2-2-2-|-2--2-2-2-2-2-2-|-2--2-2-2-2-2-2-|----------------------|
D|-2--2-2-2-2-2-2-|-0--0-0-0-0-0-0-|-4--4-4-4-4-4-4-|---------2----------2-|
A|-0--0-0-0-0-0-0-|-0--0-0-0-0-0-0-|-4--4-4-4-4-4-4-|---------2----------2-|
E|----------------|----------------|-2--2-2-2-2-2-2-|-0-0-0-0-0--0-0-0-0-0-|
                                                      . . . .    . . . .
Guitar 2
E|----------------|----------------|----------------|----------------------|
B|-------------5--|-------------0--|-------------5--|----------------------|
G|-6-----6--------|-6-----6--------|-6-----6--------|-9-9-9-9-9--9-9-9-9-9-|
D|---7-------7----|---7-------7----|---7-------7----|-x-x-x-x-x--x-x-x-x-x-|
A|-----0---0------|-----0---0------|-----0---0------|-7-7-7-7-7--7-7-7-7-7-|
E|----------------|----------------|----------------|----------------------|

Guitar 3
E|-5--5-5-5-5-5-5-|-5--5-5-5-5-5-5-|-5--5-5-5-5-5-5-|----------------------|
B|-5--5-5-5-5-5-5-|-5--5-5-5-5-5-5-|-7--7-7-7-7-7-7-|----------------------|
G|-6--6-6-6-6-6-6-|-7--7-7-7-7-7-7-|-6--6-6-6-6-6-6-|----------------------|
D|----------------|----------------|----------------|----------------------|
A|----------------|----------------|----------------|----------------------|
E|----------------|----------------|----------------|----------------------|


--------------------
Interlude:
--------------------

Guitar 1
E|--------------|-------------|--------------|-------------|
B|--------------|-------------|--------------|-------------|
G|--------------|-------------|--------------|-------------|
D|----6/7-------|----6\4--4---|----6/7-------|----6\4--4/6-|
A|-4--4/5--7--7-|-7--4\2--2-0-|-4--4/5--7--7-|-7--4\2--2/4-|
E|-2-------5--5-|-5-----------|-2-------5--5-|-5-----------|

Guitar 2
E|--------------|-----------------|----------------|---------------|
B|--------------|-----------------|----------------|---------------|
G|----6/7-------|-----------13/14-|-11--9/11--9--9-|-9-------------|
D|-4--x----7--7-|-7--11\9----x----|--x--x-----x--x-|-x--11\9--9/11-|
A|-x--4/5--x--x-|-x---x-----11/12-|--9--7/-9--7--7-|-7---x----x----|
E|-2-------5--5-|-5---9\7---------|----------------|-----9\7--7/-9-|


--------------------
Verse:
--------------------

Guitar 1
E|------------------|------------------|
B|------------------|------------------|
G|------------------|------------------|
D|------------------|------------------|
A|----------5-5-5-5-|----------2-2-2-2-|
E|-2-2-2-2----------|-5-5-5-5----------|
   . . . .  . . . .   . . . .  . . . .

Guitar 2
E|------------------|------------------|
B|------------------|------------------|
G|------------------|------------------|
D|------------------|------------------|
A|-4-4-4-4----------|-4-4-4-4--2-2-2-2-|
E|----------2-2-2-2-|------------------|
   . . . .  . . . .   . . . .  . . . .

Guitar 1
E|------------------|------------------|
B|------------------|------------------|
G|------------------|------------------|
D|------------------|------------------|
A|----------5-5-5-5-|----------2-2-2-2-|
E|-2-2-2-2----------|-5-5-5-5----------|
   . . . .  . . . .   . . . .  . . . .

Guitar 2
E|------------------|------------------|
B|------------------|------------------|
G|------------------|------------------|
D|------------------|------------------|
A|-4-4-4-4----------|-4-4-4-4--2-2-2-2-|
E|----------2-2-2-2-|------------------|
   . . . .  . . . .   . . . .  . . . .

Guitar 1
E|------------------|------------------|------------------|----------------|
B|------------------|------------------|------------------|----------------|
G|------------------|------------------|------------------|----------------|
D|------------------|----------4-4-4-4-|----------7-7-7-7-|-4p2------------|
A|----------5-5-5-5-|----------2-2-2-2-|-4-4-4-4--5-5-5-5-|----5p4-2h4p2p0-|
E|-2-2-2-2----------|-5-5-5-5----------|-2-2-2-2----------|----------------|
   . . . .  . . . .   . . . .  . . . .   . . . .  . . . .

Guitar 2
E|------------------|------------------|------------------|----------------|
B|------------------|------------------|------------------|----------------|
G|------------------|------------------|------------------|----------------|
D|------------------|------------------|------------------|-4p2------------|
A|-4-4-4-4----------|-4-4-4-4--2-2-2-2-|-4-4-4-4----------|----5p4-2h4p2p0-|
E|----------2-2-2-2-|------------------|----------2-2-2-2-|----------------|
   . . . .  . . . .   . . . .  . . . .   . . . .  . . . .


--------------------
Pre-Chorus
--------------------


--------------------
Chorus
--------------------


--------------------
Interlude:
--------------------

Guitar 1
E|--------------|----------|--------------|----------|
B|--------------|----------|--------------|----------|
G|--------------|----------|--------------|----------|
D|----6/7-------|--------4-|----6/7-------|--------4-|
A|-4--4/5--7--7-|-7--x-0-2-|-4--4/5--7--7-|-7--x-0-2-|
E|-2-------5--5-|-5--x-----|-2-------5--5-|-5--x-----|

Guitar 2
E|--------------|----------|--------------|----------|
B|--------------|----------|--------------|----------|
G|--------------|----------|--------------|----------|
D|--------------|----------|--------------|--------4-|
A|--------------|----------|--------------|------x-2-|
E|--------------|----------|-0------------|----------|
                        (Feedback!)

--------------------
Bridge:
--------------------

Guitars 1 & 2
E|--------------|----------|--------------|-------------|
B|--------------|----------|--------------|-------------|
G|--------------|----------|--------------|-------------|
D|----6/7-------|--------4-|----6/7-------|----6-4--4---|
A|-4--4/5--7--7-|-7--x-0-2-|-4--4/5--7--7-|-7--4-2--2-0-|
E|-2-------5--5-|-5--x-----|-2-------5--5-|-5-----------|

Guitars 1 & 2
E|--------------|----------|--------------|------|
B|--------------|----------|--------------|------|
G|--------------|----------|--------------|------|
D|----6/7-------|--------4-|----6/7-------|----2-|
A|-4--4/5--7--7-|-7--x-0-2-|-4--4/5--7--7-|-7--2-|
E|-2-------5--5-|-5--x-----|-2-------5--5-|-5--0-|


--------------------
Pre-Chorus:
--------------------

Guitar 1
E|------------------|------------------|
B|------------------|------------------|
G|----------7-7-7---|----------4-4-4---|
D|-4-4-4----7-7-7---|-7-7-7----4-4-4---|
A|-4-4-4----5-5-5-0-|-7-7-7----2-2-2-0-|
E|-2-2-2-0----------|-5-5-5-0----------|

Guitar 2
E|----------------------|----------------------|
B|----------------------|----------------------|
G|-11-11-11--9--7-7-7-7-|-9-9-9-9--11-11-11-11-|
D|--x--x--x--x--x-x-x-x-|-x-x-x-x---x--x--x--x-|
A|--9--9--9--7--5-5-5-5-|-7-7-7-7---9--9--9--9-|
E|----------------------|----------------------|

Guitar 1
E|------------------|------------------|
B|------------------|------------------|
G|----------7-7-7---|----------4-4-4---|
D|-4-4-4----7-7-7---|-7-7-7----4-4-4---|
A|-4-4-4----5-5-5-0-|-7-7-7----2-2-2-0-|
E|-2-2-2-0----------|-5-5-5-0----------|

Guitar 2
E|----------------------|-------------------------|
B|----------------------|-------------------------|
G|-11-11-11--9--7-7-7-7-|-9-9/14-14-14--13--11--9-|
D|--x--x--x--x--x-x-x-x-|-x-x--x--x--x---x---x--x-|
A|--9--9--9--7--5-5-5-5-|-7-7/12-12-12--11---9--7-|
E|----------------------|-------------------------|

Guitar 1
E|------------------|------------------|
B|------------------|------------------|
G|----------7-7-7---|----------4-4-4---|
D|-4-4-4----7-7-7---|-7-7-7----4-4-4---|
A|-4-4-4----5-5-5-0-|-7-7-7----2-2-2-0-|
E|-2-2-2-0----------|-5-5-5-0----------|

Guitar 2
E|--------------------------|------------------|
B|--------------------------|------------------|
G|-11-11-11--9--11-11-11-11-|-6-6-6-6--4-4-4---|
D|--x--x--x--x---x--x--x--x-|-x-x-x-x--x-x-x---|
A|--9--9--9--7---9--9--9--9-|-4-4-4-4--2-2-2-0-|
E|--------------------------|------------------|

Guitar 1
E|------------------|------------------|
B|------------------|------------------|
G|----------7-7-7---|----------4-4-4-4-|
D|-4-4-4----7-7-7---|-7-7-7----4-4-4-4-|
A|-4-4-4----5-5-5-0-|-7-7-7----2-2-2-2-|
E|-2-2-2-0----------|-5-5-5-0----------|

Guitar 2
E|-------------------------|----------------|
B|-------------------------|----------------|
G|-11-11-11--9--7-7-7-7--6-|-9-9-9----------|
D|--x--x--x--x--x-x-x-x--x-|-x-x-x--9-9-9-9-|
A|--9--9--9--7--5-5-5-5--4-|-7-7-7--x-x-x-x-|
E|-------------------------|--------7-7-7-7-|


--------------------
Chorus:
--------------------

Guitar 1 (Played lightly on an acoustic guitar.)
E|-0--0-0--0--0-0-|-0--0-0--0-0-0-0-|-2--2-2--2--2-2-|-0--0-0--0-0-0-0-|
B|-2--2-2--2--2-2-|-3--3-3--3-3-3-3-|-2--2-2--2--2-2-|-0--0-0--0-0-0-0-|
G|-2--2-2--2--2-2-|-2--2-2--2-2-2-2-|-2--2-2--2--2-2-|-1--1-1--1-1-1-1-|
D|-2--2-2--2--2-2-|-0--0-0--0-0-0-0-|-4--4-4--4--4-4-|-2--2-2--2-2-2-2-|
A|-0--0-0--0--0-0-|-0--0-0--0-0-0-0-|-4--4-4--4--4-4-|-2--2-2--2-2-2-2-|
E|----------------|-----------------|-2--2-2--2--2-2-|-0--0-0--0-0-0-0-|

Guitar 2 (Hold this chord through this part.)
E|----------------|-----------------|----------------|-----------------|
B|----------------|-----------------|----------------|-----------------|
G|-2--------------|-----------------|----------------|-----------------|
D|-2--------------|-----------------|----------------|-----------------|
A|-0--------------|-----------------|----------------|-----------------|
E|----------------|-----------------|----------------|-----------------|

Guitar 1
E|-0--0-0--0--0-0-|-0--0-0--0-0-0-0-|-2--2-2--2--2-2-|-0--0-0--0-0-0-0-|
B|-2--2-2--2--2-2-|-3--3-3--3-3-3-3-|-2--2-2--2--2-2-|-0--0-0--0-0-0-0-|
G|-2--2-2--2--2-2-|-2--2-2--2-2-2-2-|-2--2-2--2--2-2-|-1--1-1--1-1-1-1-|
D|-2--2-2--2--2-2-|-0--0-0--0-0-0-0-|-4--4-4--4--4-4-|-2--2-2--2-2-2-2-|
A|-0--0-0--0--0-0-|-0--0-0--0-0-0-0-|-4--4-4--4--4-4-|-2--2-2--2-2-2-2-|
E|----------------|-----------------|-2--2-2--2--2-2-|-0--0-0--0-0-0-0-|

Guitar 2
E|----------------|-----------------|----------------|-----------------|
B|----------------|-----------------|----------------|-----------------|
G|----------------|-----------------|----------------|-----------------|
D|----------------|-----------------|----------------|-----------------|
A|----------------|-----------------|----------------|-----------------|
E|----------------|-----------------|----------------|-----------------|

Guitar 1
E|-0--0-0--0--0-0-|-0--0-0--0-0-0-0-|-2--2-2--2--2-2-|-0--0-0--0-0-0-0-|
B|-2--2-2--2--2-2-|-3--3-3--3-3-3-3-|-2--2-2--2--2-2-|-0--0-0--0-0-0-0-|
G|-2--2-2--2--2-2-|-2--2-2--2-2-2-2-|-2--2-2--2--2-2-|-1--1-1--1-1-1-1-|
D|-2--2-2--2--2-2-|-0--0-0--0-0-0-0-|-4--4-4--4--4-4-|-2--2-2--2-2-2-2-|
A|-0--0-0--0--0-0-|-0--0-0--0-0-0-0-|-4--4-4--4--4-4-|-2--2-2--2-2-2-2-|
E|----------------|-----------------|-2--2-2--2--2-2-|-0--0-0--0-0-0-0-|

Guitar 2
E|----------------|----------------|----------------|-------------|
B|-------------5--|-------------0--|-------------5--|-------2-----|
G|-6-----6--------|-6-----6--------|-6-----6--------|-----2---2-4-|
D|---7-------7----|---7-------7----|---7-------7----|-2h4---------|
A|-----0---0------|-----0---0------|-----0---0------|-------------|
E|----------------|----------------|----------------|-------------|

Guitar 1 (Hold this chord, listen to song for timing.)
E|-0-|
B|-2-|
G|-2-|
D|-2-|
A|-0-|
E|---|

Guitar 2 (Hold this chord, listen to song for timing.)
E|---|
B|---|
G|-6-|
D|-7-|
A|-0-|
E|---|

Guitars 1 & 2
E|----------------------|
B|----------------------|
G|----------------------|
D|---------2----------2-|
A|---------2----------2-|
E|-0-0-0-0-0--0-0-0-0-0-|
   . . . .     . . . .


--------------------
Chorus
--------------------


--------------------
Outro:
--------------------

Guitar 1
E|--------------|-------------|--------------|---|
B|--------------|-------------|--------------|---|
G|--------------|-------------|--------------|---|
D|--------------|----6\4--4---|----6/7-------|---|
A|-4------------|----4\2--2-0-|-4--4/5--7--7-|-7-|
E|-2------------|-------------|-2-------5--5-|-5-|

Guitar 2
E|--------------|-------------|--------------|---|
B|--------------|-------------|--------------|---|
G|--------------|-------------|--------------|---|
D|----6/7-------|----6\4--4---|----6/7-------|---|
A|-4--4/5--7--7-|-7--4\2--2-0-|-4--4/5--7--7-|-7-|
E|-2-------5--5-|-5-----------|-2-------5--5-|-5-|
-----------------------------------------------------------------------------
3. This Disaster

Tuning: DADGBE

/ = SLIDE UP
\ = SLIDE DOWN
h = HAMMER ON
p = PULL OFF
. = PALM MUTE
+ = HARMONIC

--------------------
Intro:
--------------------

Guitar 1 
E|----------------------------------------|----------------------------------------|
B|----------------------------------------|----------------------------------------|
G|----------------------------------------|----------------------------------------|
D|----------------------------------------|----------------------------------------|
A|---9h10----9h10--7\5----5h7----5h7--4---|---9h10----9h10--7\5----5h7----5h7--4---|
D|-9-------9------------5------5--------7-|-9-------9------------5------5--------7-|
   .       .            .      .        .   .       .            .      .        .

Guitar 2 
E|----------------------------------------|----------------------------------------|
B|----------------------------------------|----------------------------------------|
G|----------------------------------------|----------------------------------------|
D|----------------------------------------|----------------------------------------|
A|----------------------------------------|----------------------------------------|
D|----------------------------------------|----------------------------------------|

Guitar 1 
E|----------------------------------------|----------------------------------------|
B|----------------------------------------|----------------------------------------|
G|----------------------------------------|----------------------------------------|
D|----------------------------------------|----------------------------------------|
A|---9h10----9h10--7\5----5h7----5h7--4---|---9h10----9h10--7\5----5h7----5h7--4---|
D|-9-------9------------5------5--------7-|-9-------9------------5------5--------7-|
   .       .            .      .        .   .       .            .      .        .

Guitar 2 (Listen to the song for timing on this part.)
E|----------------------------------------|----------------------------------------|
B|----------------------------------------|----------------------------------------|
G|----------------------------------------|----------------------------------------|
D|----------------------------------------|----------------------------------------|
A|-2--------------------------------------|-2--------------------------------------|
D|---------4-------5----2------7--------5-|---------4-------5----2------7--------5-|


--------------------
Verse:
--------------------

Guitar 1
E|-------------------------------------|-------------------------------------|
B|-------------------------------------|-------------------------------------|
G|-------------------------------------|-------------------------------------|
D|-9-9--7--5-5--7--9-9--7--5-5--5-5--7-|-9-9--7--5-5--7--9-9--7--5-5--5-5--7-|
A|-9-9--7--5-5--7--9-9--7--5-5--5-5--7-|-9-9--7--5-5--7--9-9--7--5-5--5-5--7-|
D|-9-9--7--5-5--7--9-9--7--5-5--5-5--7-|-9-9--7--5-5--7--9-9--7--5-5--5-5--7-|

Guitar 2
E|-----------------------------------------|-----------------------------------------|
B|-----------------------------------------|-----------------------------------------|
G|-----------------------------------------|-----------------------------------------|
D|-9-9--7--5-5--7--9-9--11--12-12--12-12-7-|-9-9--7--5-5--7--9-9--11--12-12--12-12-7-|
A|-x-x--x--x-x--x--x-x---x---x--x---x--x-x-|-x-x--x--x-x--x--x-x---x---x--x---x--x-x-|
D|-9-9--7--5-5--7--9-9--11--12-12--12-12-7-|-9-9--7--5-5--7--9-9--11--12-12--12-12-7-|

Guitar 1
E|-------------------------------------|--------------------------------|
B|-------------------------------------|--------------------------------|
G|-------------------------------------|--------------------------------|
D|-9-9--7--5-5--7--9-9--7--5-5--5-5--7-|-9-9--7--5-5--7--9-9--7--5-5--5-|
A|-9-9--7--5-5--7--9-9--7--5-5--5-5--7-|-9-9--7--5-5--7--9-9--7--5-5--5-|
D|-9-9--7--5-5--7--9-9--7--5-5--5-5--7-|-9-9--7--5-5--7--9-9--7--5-5--5-|

Guitar 2
E|-----------------------------------------|--------------------------------|
B|-----------------------------------------|--------------------------------|
G|-----------------------------------------|--------------------------------|
D|-9-9--7--5-5--7--9-9--11--12-12--12-12-7-|-9-9--7--5-5--7--9-9--7--5-5--5-|
A|-x-x--x--x-x--x--x-x---x---x--x---x--x-x-|-x-x--x--x-x--x--x-x--x--x-x--x-|
D|-9-9--7--5-5--7--9-9--11--12-12--12-12-7-|-9-9--7--5-5--7--9-9--7--5-5--5-|

Guitar 3 (Listen to the song for timing on when to play these lead parts.)
E|-----------------|-----------------|------------------|--------------|
B|-----------------|-----------------|------------------|----------7h8-|
G|-----------------|----------6--7h9-|------------------|--------------|
D|-----9p7---------|-----------------|-----9p7----------|--------------|
A|-9-7-----9p7-5-5-|-9-9-9-9---------|-9-7-----9p7--5-5-|-9-9-9-9------|
D|-----------------|-----------------|------------------|--------------|
   . .               . . . .           . .                . . . .


--------------------
Chorus:
--------------------

Guitar 1
E|----------------------------------|---------------------------------|
B|----------------------------------|---------------------------------|
G|----------------------------------|---------------------------------|
D|-0-0-0-0-0-0-0-0--5-5-5-5-5-5-5-5-|-7-7-7-7-7-7-7-7-7-7-7-7-7-7-7-7-|
A|-0-0-0-0-0-0-0-0--5-5-5-5-5-5-5-5-|-7-7-7-7-7-7-7-7-7-7-7-7-7-7-7-7-|
D|-0-0-0-0-0-0-0-0--5-5-5-5-5-5-5-5-|-7-7-7-7-7-7-7-7-7-7-7-7-7-7-7-7-|

Guitar 2
E|----------------------------------|-----------------------------------|
B|----------------------------------|-----------------------------------|
G|-7-7-7-7-7-7-7-7--7-7-7-7-7-7-7-7-|-9-9-9-9-9-9-9-9-9-9-9-9-9/12\11\9-|
D|-x-x-x-x-x-x-x-x--x-x-x-x-x-x-x-x-|-x-x-x-x-x-x-x-x-x-x-x-x-x---------|
A|-5-5-5-5-5-5-5-5--5-5-5-5-5-5-5-5-|-7-7-7-7-7-7-7-7-7-7-7-7-7/10\-9\7-|
D|----------------------------------|-----------------------------------|

Guitar 1
E|-----------------------------------|----------------------------------|
B|-----------------------------------|----------------------------------|
G|-----------------------------------|----------------------------------|
D|-0-0-0-0-0-0-0-0--5-5-5-5--4-4-4-4-|-2-2-2-2-2-2-2-2--7-7-7-7-7-7-7-7-|
A|-0-0-0-0-0-0-0-0--5-5-5-5--4-4-4-4-|-2-2-2-2-2-2-2-2--7-7-7-7-7-7-7-7-|
D|-0-0-0-0-0-0-0-0--5-5-5-5--4-4-4-4-|-2-2-2-2-2-2-2-2--7-7-7-7-7-7-7-7-|

Guitar 2
E|-------------------------------------------|------------------------------------|
B|-------------------------------------------|------------------------------------|
G|-7-7-7-7-7-7-7-7--12-12-12-12--11-11-11-11-|-9-9-9-9-9-9-9-9--------------------|
D|-x-x-x-x-x-x-x-x---x--x--x--x---x--x--x--x-|-x-x-x-x-x-x-x-x--7-7-7-7-7-7-7-7-7-|
A|-5-5-5-5-5-5-5-5--10-10-10-10---9--9--9--9-|-7-7-7-7-7-7-7-7--x-x-x-x-x-x-x-x-x-|
D|-------------------------------------------|------------------7-7-7-7-7-7-7-7-7-|


--------------------
Interlude:
--------------------

Guitar 1 
E|----------------------------------------|----------------------------------------|
B|----------------------------------------|----------------------------------------|
G|----------------------------------------|----------------------------------------|
D|----------------------------------------|----------------------------------------|
A|---9h10----9h10--7\5----5h7----5h7--4---|---9h10----9h10--7\5----5h7----5h7--4---|
D|-9-------9------------5------5--------7-|-9-------9------------5------5--------7-|
   .       .            .      .        .   .       .            .      .        .

Guitar 2 
E|----------------------------------------|----------------------------------------| 
B|----------------------------------------|----------------------------------------| 
G|----------------------------------------|----------------------------------------| 
D|----------------------------------------|----------------------------------------| 
A|-2--------------------------------------|-2--------------------------------------| 
D|---------4-------5----2------7--------5-|---------4-------5----2------7--------5-|

Guitar 1 
E|----------------------------------------|----------------------------------------|
B|----------------------------------------|----------------------------------------|
G|----------------------------------------|----------------------------------------|
D|----------------------------------------|----------------------------------------|
A|---9h10----9h10--7\5----5h7----5h7--4---|---9h10----9h10--7\5----5h7----5h7--4---|
D|-9-------9------------5------5--------7-|-9-------9------------5------5--------7-|
   .       .            .      .        .   .       .            .      .        .

Guitar 2 
E|----------------------------------------|----------------------------------------| 
B|----------------------------------------|----------------------------------------| 
G|----------------------------------------|----------------------------------------| 
D|----------------------------------------|----------------------------------------| 
A|-2--------------------------------------|-2--------------------------------------| 
D|---------4-------5----2------7--------5-|---------4-------5----2------7--------5-|


--------------------
Verse:
--------------------

Guitar 1
E|-------------------------------------|-------------------------------------|
B|-------------------------------------|-------------------------------------|
G|-------------------------------------|-------------------------------------|
D|-9-9--7--5-5--7--9-9--7--5-5--5-5--7-|-9-9--7--5-5--7--9-9--7--5-5--5-5--7-|
A|-9-9--7--5-5--7--9-9--7--5-5--5-5--7-|-9-9--7--5-5--7--9-9--7--5-5--5-5--7-|
D|-9-9--7--5-5--7--9-9--7--5-5--5-5--7-|-9-9--7--5-5--7--9-9--7--5-5--5-5--7-|

Guitar 2
E|-----------------------------------------|-----------------------------------------|
B|-----------------------------------------|-----------------------------------------|
G|-----------------------------------------|-----------------------------------------|
D|-9-9--7--5-5--7--9-9--11--12-12--12-12-7-|-9-9--7--5-5--7--9-9--11--12-12--12-12-7-|
A|-x-x--x--x-x--x--x-x---x---x--x---x--x-x-|-x-x--x--x-x--x--x-x---x---x--x---x--x-x-|
D|-9-9--7--5-5--7--9-9--11--12-12--12-12-7-|-9-9--7--5-5--7--9-9--11--12-12--12-12-7-|

Guitar 1
E|-------------------------------------|--------------------------------|
B|-------------------------------------|--------------------------------|
G|-------------------------------------|--------------------------------|
D|-9-9--7--5-5--7--9-9--7--5-5--5-5--7-|-9-9--7--5-5--7--9-9--7--5-5--5-|
A|-9-9--7--5-5--7--9-9--7--5-5--5-5--7-|-9-9--7--5-5--7--9-9--7--5-5--5-|
D|-9-9--7--5-5--7--9-9--7--5-5--5-5--7-|-9-9--7--5-5--7--9-9--7--5-5--5-|

Guitar 2
E|-----------------------------------------|--------------------------------|
B|-----------------------------------------|--------------------------------|
G|-----------------------------------------|--------------------------------|
D|-9-9--7--5-5--7--9-9--11--12-12--12-12-7-|-9-9--7--5-5--7--9-9--7--5-5--5-|
A|-x-x--x--x-x--x--x-x---x---x--x---x--x-x-|-x-x--x--x-x--x--x-x--x--x-x--x-|
D|-9-9--7--5-5--7--9-9--11--12-12--12-12-7-|-9-9--7--5-5--7--9-9--7--5-5--5-|

Guitar 3 (Listen to the song for timing on this part.)
E|-------------------------|------------------------|--------------------------------|
B|-------------------7-7-7-|------------------------|--------------------------------|
G|-------------------------|------------------------|--------------------------------|
D|-----9p7-----------------|-4-4-4-4h5p4------------|-----9p7------------------------|
A|-9-7-----9p7-5-5-5-------|-------------4-5-5--5-5-|-9-9-----9p7-5-5-7-9--10-7-9h10-|
D|-------------------------|------------------------|--------------------------------|
   . .         . . . + + +   . . .                    . .         . . . .

E|-------------------------|
B|-------------------------|
G|-------------------------|
D|-------------------------|
A|-9-9--9-9-9-7-9p7-5-5--5-|
D|-------------------------|


--------------------
Chorus:
--------------------

Guitar 1
E|----------------------------------|---------------------------------|
B|----------------------------------|---------------------------------|
G|----------------------------------|---------------------------------|
D|-0-0-0-0-0-0-0-0--5-5-5-5-5-5-5-5-|-7-7-7-7-7-7-7-7-7-7-7-7-7-7-7-7-|
A|-0-0-0-0-0-0-0-0--5-5-5-5-5-5-5-5-|-7-7-7-7-7-7-7-7-7-7-7-7-7-7-7-7-|
D|-0-0-0-0-0-0-0-0--5-5-5-5-5-5-5-5-|-7-7-7-7-7-7-7-7-7-7-7-7-7-7-7-7-|

Guitar 2
E|----------------------------------|-----------------------------------|
B|----------------------------------|-----------------------------------|
G|-7-7-7-7-7-7-7-7--7-7-7-7-7-7-7-7-|-9-9-9-9-9-9-9-9-9-9-9-9-9/12\11\9-|
D|-x-x-x-x-x-x-x-x--x-x-x-x-x-x-x-x-|-x-x-x-x-x-x-x-x-x-x-x-x-x---------|
A|-5-5-5-5-5-5-5-5--5-5-5-5-5-5-5-5-|-7-7-7-7-7-7-7-7-7-7-7-7-7/10\-9\7-|
D|----------------------------------|-----------------------------------|

Guitar 1
E|-----------------------------------|----------------------------------|
B|-----------------------------------|----------------------------------|
G|-----------------------------------|----------------------------------|
D|-0-0-0-0-0-0-0-0--5-5-5-5--4-4-4-4-|-2-2-2-2-2-2-2-2--7-7-7-7-7-7-7-7-|
A|-0-0-0-0-0-0-0-0--5-5-5-5--4-4-4-4-|-2-2-2-2-2-2-2-2--7-7-7-7-7-7-7-7-|
D|-0-0-0-0-0-0-0-0--5-5-5-5--4-4-4-4-|-2-2-2-2-2-2-2-2--7-7-7-7-7-7-7-7-|

Guitar 2
E|-------------------------------------------|------------------------------------|
B|-------------------------------------------|------------------------------------|
G|-7-7-7-7-7-7-7-7--12-12-12-12--11-11-11-11-|-9-9-9-9-9-9-9-9--------------------|
D|-x-x-x-x-x-x-x-x---x--x--x--x---x--x--x--x-|-x-x-x-x-x-x-x-x--7-7-7-7-7-7-7-7-7-|
A|-5-5-5-5-5-5-5-5--10-10-10-10---9--9--9--9-|-7-7-7-7-7-7-7-7--x-x-x-x-x-x-x-x-x-|
D|-------------------------------------------|------------------7-7-7-7-7-7-7-7-7-|

Guitar 1
E|----------------------------------|---------------------------------|
B|----------------------------------|---------------------------------|
G|----------------------------------|---------------------------------|
D|-0-0-0-0-0-0-0-0--5-5-5-5-5-5-5-5-|-7-7-7-7-7-7-7-7-7-7-7-7-7-7-7-7-|
A|-0-0-0-0-0-0-0-0--5-5-5-5-5-5-5-5-|-7-7-7-7-7-7-7-7-7-7-7-7-7-7-7-7-|
D|-0-0-0-0-0-0-0-0--5-5-5-5-5-5-5-5-|-7-7-7-7-7-7-7-7-7-7-7-7-7-7-7-7-|

Guitar 2
E|----------------------------------|-----------------------------------|
B|----------------------------------|-----------------------------------|
G|-7-7-7-7-7-7-7-7--7-7-7-7-7-7-7-7-|-9-9-9-9-9-9-9-9-9-9-9-9-9/12\11\9-|
D|-x-x-x-x-x-x-x-x--x-x-x-x-x-x-x-x-|-x-x-x-x-x-x-x-x-x-x-x-x-x---------|
A|-5-5-5-5-5-5-5-5--5-5-5-5-5-5-5-5-|-7-7-7-7-7-7-7-7-7-7-7-7-7/10\-9\7-|
D|----------------------------------|-----------------------------------|

Guitar 3 (Play this part with a clean tone.)
E|-2-----2-----2-------0-------0---|-----0-----0-----0-----2-----0---|
B|---3-----3-----3---3---3---3---3-|---3---3-----3-----3-----3-----3-|
G|-----2-----2-----0-------0-------|-2-------2-----2-----2-----2-----|
D|---------------------------------|---------------------------------|
A|---------------------------------|---------------------------------|
D|---------------------------------|---------------------------------|

Guitar 1
E|-----------------------------------|----------------------------------|
B|-----------------------------------|----------------------------------|
G|-----------------------------------|----------------------------------|
D|-0-0-0-0-0-0-0-0--5-5-5-5--4-4-4-4-|-2-2-2-2-2-2-2-2--7-7-7-7-7-7-7-7-|
A|-0-0-0-0-0-0-0-0--5-5-5-5--4-4-4-4-|-2-2-2-2-2-2-2-2--7-7-7-7-7-7-7-7-|
D|-0-0-0-0-0-0-0-0--5-5-5-5--4-4-4-4-|-2-2-2-2-2-2-2-2--7-7-7-7-7-7-7-7-|

Guitar 2
E|-------------------------------------------|------------------------------------|
B|-------------------------------------------|------------------------------------|
G|-7-7-7-7-7-7-7-7--12-12-12-12--11-11-11-11-|-9-9-9-9-9-9-9-9--------------------|
D|-x-x-x-x-x-x-x-x---x--x--x--x---x--x--x--x-|-x-x-x-x-x-x-x-x--7-7-7-7-7-7-7-7-7-|
A|-5-5-5-5-5-5-5-5--10-10-10-10---9--9--9--9-|-7-7-7-7-7-7-7-7--x-x-x-x-x-x-x-x-x-|
D|-------------------------------------------|------------------7-7-7-7-7-7-7-7-7-|

Guitar 3
E|-2-----2-----2-------0-------0---|-----0-------0-------0---2-----0-|
B|---3-----3-----3---3---3---3---3-|---3---3---3---3---3---3---3-----|
G|-----2-----2-----0---------------|-----------------2-----------2---|
D|-------------------------4-------|-2-------2-----------------------|
A|---------------------------------|---------------------------------|
D|---------------------------------|---------------------------------|


--------------------
Interlude:
--------------------

Guitar 1
E|---------------------------------------------------|--------------|
B|---------------------------------------------------|--------------|
G|-4-4-4--4-4--4-4-4--4-4--4-4-4--4-4--4-4-4-4-4-----|--------------|
D|-----------------------------------------------3-3-|-9----9-7-7-7-|
A|---------------------------------------------------|-x----x-x-x-x-|
D|---------------------------------------------------|-9----9-9-9-9-|

Guitar 2 (Hold the note through the measure.)
E|---------------------------------------------------|--------------|
B|---------------------------------------------------|--------------|
G|---------------------------------------------------|--------------|
D|---------------------------------------------------|--------------|
A|---------------------------------------------------|--------------|
D|---------------------------------------------------|-9------------|

Guitar 1
E|-------------------|-------------------|--------------------------|
B|-------------------|-------------------|--------------------------|
G|-------------------|-------------------|--------------------------|
D|-9----9--9-9-7-7-7-|-9----9--9-9-7-7-7-|-9----9----9----9---------|
A|-x----x--x-x-x-x-x-|-x----x--x-x-x-x-x-|-x----x----x----x---------|
D|-9----9--9-9-9-9-9-|-9----9--9-9-9-9-9-|-9----9----9----9----0-/9\|

Guitar 2
E|-------------------|-------------------|--------------------------|
B|-------------------|-------------------|--------------------------|
G|-------------------|-------------------|--------------------------|
D|-------------------|-------------------|--------------------------|
A|-------------------|-------------------|--------------------------|
D|-9-----------------|-9-----------------|-9----9----9----9----9--9-|


--------------------
Bridge:
--------------------

Guitars 1 & 2 (Listen to song for timing on this.)
E|----------------------------|----------------------------|
B|----------------------------|----------------------------|
G|----------------------------|----------------------------|
D|-9----4----5----2----7----5-|-9----4----5----2----7----5-|
A|-9----4----5----2----7----5-|-9----4----5----2----7----5-|
D|-9----4----5----2----7----5-|-9----4----5----2----7----5-|

Guitar 1
E|----------------------------|-------------------------|
B|----------------------------|-------------------------|
G|----------------------------|-------------------------|
D|-9----4----5----2----7----5-|-9----4----5-5----5----5-|
A|-9----4----5----2----7----5-|-9----4----5-5----5----5-|
D|-9----4----5----2----7----5-|-9----4----5-5----5----5-|

Guitar 2
E|---------------------------------|-----------------------|
B|---------------------------------|-----------------------|
G|---------------------------------|-----------------------|
D|-----9-----------7-----7-----7-0-|-----9-----------------|
A|-9-7---7-5-4-5-5---4-4---0-0-----|-9-7---7-5-4-5-5--5--5-|
D|---------------------------------|-----------------------|
   . . . . . . . . . . . . . . . .   . . . . . . . .  .  .

Guitar 1
E|----------------------------------|---------------------------------|
B|----------------------------------|---------------------------------|
G|----------------------------------|---------------------------------|
D|-0-0-0-0-0-0-0-0--5-5-5-5-5-5-5-5-|-7-7-7-7-7-7-7-7-7-7-7-7-7-7-7-7-|
A|-0-0-0-0-0-0-0-0--5-5-5-5-5-5-5-5-|-7-7-7-7-7-7-7-7-7-7-7-7-7-7-7-7-|
D|-0-0-0-0-0-0-0-0--5-5-5-5-5-5-5-5-|-7-7-7-7-7-7-7-7-7-7-7-7-7-7-7-7-|

Guitar 2
E|----------------------------------|-----------------------------------|
B|----------------------------------|-----------------------------------|
G|-7-7-7-7-7-7-7-7--7-7-7-7-7-7-7-7-|-9-9-9-9-9-9-9-9-9-9-9-9-9/12\11\9-|
D|-x-x-x-x-x-x-x-x--x-x-x-x-x-x-x-x-|-x-x-x-x-x-x-x-x-x-x-x-x-x---------|
A|-5-5-5-5-5-5-5-5--5-5-5-5-5-5-5-5-|-7-7-7-7-7-7-7-7-7-7-7-7-7/10\-9\7-|
D|----------------------------------|-----------------------------------|

Guitar 1
E|-----------------------------------|----------------------------------|
B|-----------------------------------|----------------------------------|
G|-----------------------------------|----------------------------------|
D|-0-0-0-0-0-0-0-0--5-5-5-5--4-4-4-4-|-2-2-2-2-2-2-2-2--7-7-7-7-7-7-7-7-|
A|-0-0-0-0-0-0-0-0--5-5-5-5--4-4-4-4-|-2-2-2-2-2-2-2-2--7-7-7-7-7-7-7-7-|
D|-0-0-0-0-0-0-0-0--5-5-5-5--4-4-4-4-|-2-2-2-2-2-2-2-2--7-7-7-7-7-7-7-7-|

Guitar 2
E|-------------------------------------------|------------------------------------|
B|-------------------------------------------|------------------------------------|
G|-7-7-7-7-7-7-7-7--12-12-12-12--11-11-11-11-|-9-9-9-9-9-9-9-9--------------------|
D|-x-x-x-x-x-x-x-x---x--x--x--x---x--x--x--x-|-x-x-x-x-x-x-x-x--7-7-7-7-7-7-7-7-7-|
A|-5-5-5-5-5-5-5-5--10-10-10-10---9--9--9--9-|-7-7-7-7-7-7-7-7--x-x-x-x-x-x-x-x-x-|
D|-------------------------------------------|------------------7-7-7-7-7-7-7-7-7-|

Guitar 1
E|----------------------------------|---------------------------------|
B|----------------------------------|---------------------------------|
G|----------------------------------|---------------------------------|
D|-0-0-0-0-0-0-0-0--5-5-5-5-5-5-5-5-|-7-7-7-7-7-7-7-7-7-7-7-7-7-7-7-7-|
A|-0-0-0-0-0-0-0-0--5-5-5-5-5-5-5-5-|-7-7-7-7-7-7-7-7-7-7-7-7-7-7-7-7-|
D|-0-0-0-0-0-0-0-0--5-5-5-5-5-5-5-5-|-7-7-7-7-7-7-7-7-7-7-7-7-7-7-7-7-|

Guitar 2
E|----------------------------------|-----------------------------------|
B|----------------------------------|-----------------------------------|
G|-7-7-7-7-7-7-7-7--7-7-7-7-7-7-7-7-|-9-9-9-9-9-9-9-9-9-9-9-9-9/12\11\9-|
D|-x-x-x-x-x-x-x-x--x-x-x-x-x-x-x-x-|-x-x-x-x-x-x-x-x-x-x-x-x-x---------|
A|-5-5-5-5-5-5-5-5--5-5-5-5-5-5-5-5-|-7-7-7-7-7-7-7-7-7-7-7-7-7/10\-9\7-|
D|----------------------------------|-----------------------------------|

Guitar 3 (Play this part with a clean tone.)
E|-2-----2-----2-------0-------0---|-----0-----0-----0-----2-----0---|
B|---3-----3-----3---3---3---3---3-|---3---3-----3-----3-----3-----3-|
G|-----2-----2-----0-------0-------|-2-------2-----2-----2-----2-----|
D|---------------------------------|---------------------------------|
A|---------------------------------|---------------------------------|
D|---------------------------------|---------------------------------|

Guitar 1
E|-----------------------------------|----------------------------------|
B|-----------------------------------|----------------------------------|
G|-----------------------------------|----------------------------------|
D|-0-0-0-0-0-0-0-0--5-5-5-5--4-4-4-4-|-2-2-2-2-2-2-2-2--7-7-7-7-7-7-7-7-|
A|-0-0-0-0-0-0-0-0--5-5-5-5--4-4-4-4-|-2-2-2-2-2-2-2-2--7-7-7-7-7-7-7-7-|
D|-0-0-0-0-0-0-0-0--5-5-5-5--4-4-4-4-|-2-2-2-2-2-2-2-2--7-7-7-7-7-7-7-7-|

Guitar 2
E|-------------------------------------------|------------------------------------|
B|-------------------------------------------|------------------------------------|
G|-7-7-7-7-7-7-7-7--12-12-12-12--11-11-11-11-|-9-9-9-9-9-9-9-9--------------------|
D|-x-x-x-x-x-x-x-x---x--x--x--x---x--x--x--x-|-x-x-x-x-x-x-x-x--7-7-7-7-7-7-7-7-7-|
A|-5-5-5-5-5-5-5-5--10-10-10-10---9--9--9--9-|-7-7-7-7-7-7-7-7--x-x-x-x-x-x-x-x-x-|
D|-------------------------------------------|------------------7-7-7-7-7-7-7-7-7-|

Guitar 3
E|-2-----2-----2-------0-------0---|-----0-------0-------0---2-----0-|
B|---3-----3-----3---3---3---3---3-|---3---3---3---3---3---3---3-----|
G|-----2-----2-----0---------------|-----------------2-----------2---|
D|-------------------------4-------|-2-------2-----------------------|
A|---------------------------------|---------------------------------|
D|---------------------------------|---------------------------------|


--------------------
Outro:
--------------------

Guitars 1 & 2
E|----------------------------------------|------------------------|
B|----------------------------------------|------------------------|
G|----------------------------------------|------------------------|
D|----------------------------------------|------------------------|
A|---9h10----9h10--7\5----5h7----5h7--4---|---9h10----9h10--7\5--5-|
D|-9-------9------------5------5--------7-|-9-------9------------5-|
   .       .            .      .        .   .       .
----------------------------------------------------------------------------
4. Truth Of My Youth

Tuning: EBGDAE

/ = SLIDE UP
\ = SLIDE DOWN
b = BEND
r = RELEASE
h = HAMMER ON
p = PULL OFF
. = PALM MUTE
+ = HARMONIC

--------------------
Intro:
--------------------

Guitar 1
E|---------|------------------|---------|------------------|
B|---------|------------------|---------|------------------|
G|-5--2--0-|-5--2--0----2-0---|-5--2--0-|-5--2--0----2-0---|
D|-3--3--3-|-3--3--3----3-3-3-|-3--3--3-|-3--3--3----3-3-3-|
A|---------|------------------|---------|------------------|
E|---------|------------------|---------|------------------|

Guitar 2
E|----------------------------|----------------------------|
B|----------------------------|----------------------------|
G|------------------------3-3-|------------------------3-3-|
D|------------------------3-3-|------------------------3-3-|
A|------------------------1-1-|------------------------1-1-|
E|----------------------------|----------------------------|

Guitar 1
E|---------|------------------|---------|------------------|
B|---------|------------------|---------|------------------|
G|-5--2--0-|-5--2--0----2-0---|-5--2--0-|-5--2--0----2-0---|
D|-3--3--3-|-3--3--3----3-3-3-|-3--3--3-|-3--3--3----3-3-3-|
A|---------|------------------|---------|------------------|
E|---------|------------------|---------|------------------|

Guitar 2
E|---------------------------|-------------------------|
B|---------------------------|-------------------------|
G|---------------------------|---------------------3-3-|
D|-3--x-3--x-3--x-3--x-x-x-x-|-3--x-3--x-3--x-x-x--3-3-|
A|-3--x-3--x-3--x-3--x-x-x-x-|-3--x-3--x-3--x-x-x--1-1-|
E|-1--x-1--x-1--x-1--x-x-x-x-|-1--x-1--x-1--x-x-x------|

Guitar 1
E|---------|------------------|---------|------------------|
B|---------|------------------|---------|------------------|
G|-5--2--0-|-5--2--0----2-0---|-5--2--0-|-5--2--0----2-0---|
D|-3--3--3-|-3--3--3----3-3-3-|-3--3--3-|-3--3--3----3-3-3-|
A|---------|------------------|---------|------------------|
E|---------|------------------|---------|------------------|

Guitar 2
E|---------------------------|-------------------------|
B|---------------------------|-------------------------|
G|---------------------------|---------------------3-3-|
D|-3--x-3--x-3--x-3--x-x-x-x-|-3--x-3--x-3--x-x-x--3-3-|
A|-3--x-3--x-3--x-3--x-x-x-x-|-3--x-3--x-3--x-x-x--1-1-|
E|-1--x-1--x-1--x-1--x-x-x-x-|-1--x-1--x-1--x-x-x------|

Guitar 1
E|---------|------------------|---------|------------------|
B|---------|------------------|---------|------------------|
G|-5--2--0-|-5--2--0----2-0---|-5--2--0-|-5--2--0----2-0---|
D|-3--3--3-|-3--3--3----3-3-3-|-3--3--3-|-3--3--3----3-3-3-|
A|---------|------------------|---------|------------------|
E|---------|------------------|---------|------------------|

Guitar 2
E|---------------------------|-------------------------|
B|---------------------------|-------------------------|
G|-5--5-5--5-5--5-5--x-x-x-x-|-5--5-5--5-5--5-x-x--3-3-|
D|-3--3-3--3-3--3-3--x-x-x-x-|-3--3-3--3-3--3-x-x--3-3-|
A|-5--5-5--5-5--5-5--x-x-x-x-|-5--5-5--5-5--5-x-x--1-1-|
E|---------------------------|-------------------------|

Guitar 1
E|---------|-------------------|
B|---------|-------------------|
G|-5--2--0-|-5---------------5-|
D|-3--3--3-|-3--3-3-3-3-3-3--3-|
A|---------|-------------------|
E|---------|-------------------|
                . . . . . .
Guitar 2
E|---------------------------|-------------------|
B|---------------------------|-------------------|
G|---------------------------|-3---------------3-|
D|-3--x-3--x-3--x-3--x-x-x-x-|-3---------------3-|
A|-3--x-3--x-3--x-3--x-x-x-x-|-1--1-1-1-1-1-1--1-|
E|-1--x-1--x-1--x-1--x-x-x-x-|-------------------|
                                  . . . . . .

--------------------
Verse:
--------------------

Guitars 1 & 2
E|-------------------------|-------------------------|
B|-------------------------|-------------------------|
G|-------------------------|---------------------3-3-|
D|-3--3-3--3-3--3-3--3-3-3-|-3--3-3--3-3--3-x-x--3-3-|
A|-3--3-3--3-3--3-3--3-3-3-|-3--3-3--3-3--3-x-x--1-1-|
E|-1--1-1--1-1--1-1--1-1-1-|-1--1-1--1-1--1-x-x------|

Guitars 1 & 2
E|-------------------------|-------------------------|
B|-------------------------|-------------------------|
G|-------------------------|---------------------3-3-|
D|-3--3-3--3-3--3-3--3-3-3-|-3--3-3--3-3--3-x-x--3-3-|
A|-3--3-3--3-3--3-3--3-3-3-|-3--3-3--3-3--3-x-x--1-1-|
E|-1--1-1--1-1--1-1--1-1-1-|-1--1-1--1-1--1-x-x------|

Guitars 1 & 2
E|---------------------------|-------------------------|
B|---------------------------|-------------------------|
G|-5--5-5--5-5--5-5--5-5-5-5-|-5--5-5--5-5--5-x-x--3-3-|
D|-3--3-3--3-3--3-3--3-3-3-3-|-3--3-3--3-3--3-x-x--3-3-|
A|-5--5-5--5-5--5-5--5-5-5-5-|-5--5-5--5-5--5-x-x--1-1-|
E|---------------------------|-------------------------|

Guitars 1 & 2
E|-------------------------|---------|
B|-------------------------|---------|
G|-------------------------|-3----3--|
D|-3--3-3--3-3--3-3--3-3-3-|-3----3--|
A|-3--3-3--3-3--3-3--3-3-3-|-1----1--|
E|-1--1-1--1-1--1-1--1-1-1-|---------|


--------------------
Interlude:
--------------------

Guitar 1
E|---------|------------------|---------|------------------|
B|---------|------------------|---------|------------------|
G|-5--2--0-|-5--2--0----2-0---|-5--2--0-|-5--2--0----2-0---|
D|-3--3--3-|-3--3--3----3-3-3-|-3--3--3-|-3--3--3----3-3-3-|
A|---------|------------------|---------|------------------|
E|---------|------------------|---------|------------------|

Guitar 2
E|---------------------------|-------------------------|
B|---------------------------|-------------------------|
G|---------------------------|---------------------3-3-|
D|-3--x-3--x-3--x-3--x-x-x-x-|-3--x-3--x-3--x-x-x--3-3-|
A|-3--x-3--x-3--x-3--x-x-x-x-|-3--x-3--x-3--x-x-x--1-1-|
E|-1--x-1--x-1--x-1--x-x-x-x-|-1--x-1--x-1--x-x-x------|

Guitar 1
E|---------|------------------|---------|------------------|
B|---------|------------------|---------|------------------|
G|-5--2--0-|-5--2--0----2-0---|-5--2--0-|-5--2--0----2-0---|
D|-3--3--3-|-3--3--3----3-3-3-|-3--3--3-|-3--3--3----3-3-3-|
A|---------|------------------|---------|------------------|
E|---------|------------------|---------|------------------|

Guitar 2
E|---------------------------|-------------------------|
B|---------------------------|-------------------------|
G|---------------------------|---------------------3-3-|
D|-3--x-3--x-3--x-3--x-x-x-x-|-3--x-3--x-3--x-x-x--3-3-|
A|-3--x-3--x-3--x-3--x-x-x-x-|-3--x-3--x-3--x-x-x--1-1-|
E|-1--x-1--x-1--x-1--x-x-x-x-|-1--x-1--x-1--x-x-x------|

Guitar 1
E|---------|------------------|---------|------------------|
B|---------|------------------|---------|------------------|
G|-5--2--0-|-5--2--0----2-0---|-5--2--0-|-5--2--0----2-0---|
D|-3--3--3-|-3--3--3----3-3-3-|-3--3--3-|-3--3--3----3-3-3-|
A|---------|------------------|---------|------------------|
E|---------|------------------|---------|------------------|

Guitar 2
E|---------------------------|-------------------------|
B|---------------------------|-------------------------|
G|-5--5-5--5-5--5-5--x-x-x-x-|-5--5-5--5-5--5-x-x--3-3-|
D|-3--3-3--3-3--3-3--x-x-x-x-|-3--3-3--3-3--3-x-x--3-3-|
A|-5--5-5--5-5--5-5--x-x-x-x-|-5--5-5--5-5--5-x-x--1-1-|
E|---------------------------|-------------------------|

Guitar 1
E|---------|-------------------|
B|---------|-------------------|
G|-5--2--0-|-5---------------5-|
D|-3--3--3-|-3--3-3-3-3-3-3--3-|
A|---------|-------------------|
E|---------|-------------------|
                . . . . . .
Guitar 2
E|---------------------------|-------------------|
B|---------------------------|-------------------|
G|---------------------------|-3---------------3-|
D|-3--x-3--x-3--x-3--x-x-x-x-|-3---------------3-|
A|-3--x-3--x-3--x-3--x-x-x-x-|-1--1-1-1-1-1-1--1-|
E|-1--x-1--x-1--x-1--x-x-x-x-|-------------------|
                                  . . . . . .

--------------------
Verse:
--------------------

Guitars 1 & 2
E|-------------------------|-------------------------|
B|-------------------------|-------------------------|
G|-------------------------|---------------------3-3-|
D|-3--3-3--3-3--3-3--3-3-3-|-3--3-3--3-3--3-x-x--3-3-|
A|-3--3-3--3-3--3-3--3-3-3-|-3--3-3--3-3--3-x-x--1-1-|
E|-1--1-1--1-1--1-1--1-1-1-|-1--1-1--1-1--1-x-x------|

Guitars 1 & 2
E|-------------------------|-------------------------|
B|-------------------------|-------------------------|
G|-------------------------|---------------------3-3-|
D|-3--3-3--3-3--3-3--3-3-3-|-3--3-3--3-3--3-x-x--3-3-|
A|-3--3-3--3-3--3-3--3-3-3-|-3--3-3--3-3--3-x-x--1-1-|
E|-1--1-1--1-1--1-1--1-1-1-|-1--1-1--1-1--1-x-x------|

Guitars 1 & 2
E|---------------------------|-------------------------|
B|---------------------------|-------------------------|
G|-5--5-5--5-5--5-5--5-5-5-5-|-5--5-5--5-5--5-x-x--3-3-|
D|-3--3-3--3-3--3-3--3-3-3-3-|-3--3-3--3-3--3-x-x--3-3-|
A|-5--5-5--5-5--5-5--5-5-5-5-|-5--5-5--5-5--5-x-x--1-1-|
E|---------------------------|-------------------------|

Guitars 1 & 2
E|-------------------------|---|
B|-------------------------|---|
G|-------------------------|-3-|
D|-3--3-3--3-3--3-3--3-3-3-|-3-|
A|-3--3-3--3-3--3-3--3-3-3-|-1-|
E|-1--1-1--1-1--1-1--1-1-1-|---|


--------------------
Pre-Chorus:
--------------------

Guitar 1
E|---------------------------|---------------------------|---------------------------|
B|---------------------------|---------------------------|---------------------------|
G|-5--5-5--5-5--5-5--5-5-5-5-|-5--5-5--5-5--5-5--5-5-5-5-|-3--3-3--3-3--3-3--3-3-3-3-|
D|-3--3-3--3-3--3-3--3-3-3-3-|-3--3-3--3-3--3-3--3-3-3-3-|-3--3-3--3-3--3-3--3-3-3-3-|
A|-5--5-5--5-5--5-5--5-5-5-5-|-3--3-3--3-3--3-3--3-3-3-3-|-1--1-1--1-1--1-1--1-1-1-1-|
E|---------------------------|---------------------------|---------------------------|

Guitar 2
E|---------------------------|---------------------------|---------------------------|
B|---------------------------|---------------------------|---------------------------|
G|-9--10--10-----------------|-9--10--12--10-------------|-9--10--10-----------------|
D|-x---x---x-----------------|-x---x---x---x-------------|-x---x---x-----------------|
A|-7---8---8-----------------|-7---8--10---8-------------|-7---8---8-----------------|
E|---------------------------|---------------------------|---------------------------|

Guitar 1
E|---------------------------|---------------------------|---------------------------|
B|---------------------------|---------------------------|---------------------------|
G|-3--3-3--3-3--3-3--3-3-3-3-|-5--5-5--5-5--5-5--5-5-5-5-|-5--5-5--5-5--5-5--5-5-5-5-|
D|-3--3-3--3-3--3-3--3-3-3-3-|-3--3-3--3-3--3-3--3-3-3-3-|-3--3-3--3-3--3-3--3-3-3-3-|
A|-1--1-1--1-1--1-1--1-1-1-1-|-5--5-5--5-5--5-5--5-5-5-5-|-3--3-3--3-3--3-3--3-3-3-3-|
E|---------------------------|---------------------------|---------------------------|

Guitar 2
E|---------------------------|---------------------------|---------------------------|
B|---------------------------|---------------------------|---------------------------|
G|-/5--3--2--0---------------|-9--10--10-----------------|-9--10--12--10-------------|
D|---------------------------|-x---x---x-----------------|-x---x---x---x-------------|
A|---------------------------|-7---8---8-----------------|-7---8--10---8-------------|
E|---------------------------|---------------------------|---------------------------|

Guitar 1
E|---------------------------|---|
B|---------------------------|---|
G|-3--3-3--3-3--3-3--3-3-3-3-|-5-|
D|-3--3-3--3-3--3-3--3-3-3-3-|-5-|
A|-1--1-1--1-1--1-1--1-1-1-1-|-3-|
E|---------------------------|---|

Guitar 2
E|---------------------------|---|
B|---------------------------|---|
G|-9--10--10-----------------|-9-|
D|-x---x---x-----------------|-x-|
A|-7---8---8-----------------|-7-|
E|---------------------------|---|


--------------------
Chorus:
--------------------

Guitar 1
E|-----------------|-----------------|-----------------|-----------------|
B|-----------------|-----------------|-----------------|-----------------|
G|-----------------|-----------------|-3-3-3-3-3-3-3-3-|-3-3-3-3-3-3-3-3-|
D|-3-3-3-3-3-3-3-3-|-3-3-3-3-3-3-3-3-|-3-3-3-3-3-3-3-3-|-3-3-3-3-3-3-3-3-|
A|-3-3-3-3-3-3-3-3-|-3-3-3-3-3-3-3-3-|-1-1-1-1-1-1-1-1-|-1-1-1-1-1-1-1-1-|
E|-1-1-1-1-1-1-1-1-|-1-1-1-1-1-1-1-1-|-----------------|-----------------|

Guitar 2
E|-------------------------|----------------------|-----------------|------------------|
B|-------------------------|----------------------|-----------------|------------------|
G|-10-10-10-10-10-10-10-10-|-10-10-10-10--9-9-9-9-|-7-7-7-7-7-7-7-7-|-7-7-7-7--9-9-9-9-|
D|--x--x--x--x--x--x--x--x-|--x--x--x--x--x-x-x-x-|-x-x-x-x-x-x-x-x-|-x-x-x-x--x-x-x-x-|
A|--8--8--8--8--8--8--8--8-|--8--8--8--8--7-7-7-7-|-5-5-5-5-5-5-5-5-|-5-5-5-5--7-7-7-7-|
E|-------------------------|----------------------|-----------------|------------------|

Guitar 1
E|------------|------------|------------|-----------------|
B|------------|------------|------------|-----------------|
G|----------7-|----------5-|----------3-|-5-5-5-5-5-5-5-5-|
D|-7-7-7-7--x-|-5-5-5-5--x-|-3-3-3-3--x-|-5-5-5-5-5-5-5-5-|
A|-5-5-5-5--5-|-3-3-3-3--3-|-1-1-1-1--1-|-3-3-3-3-3-3-3-3-|
E|------------|------------|------------|-----------------|
   . . . .      . . . .      . . . .

Guitar 2
E|------------|------------|------------|-----------------|
B|------------|------------|------------|-----------------|
G|----------7-|----------5-|----------3-|-9-9-9-9-9-9-9-9-|
D|----------x-|----------x-|----------x-|-x-x-x-x-x-x-x-x-|
A|-5-5-5-5--5-|-3-3-3-3--3-|-1-1-1-1--1-|-7-7-7-7-7-7-7-7-|
E|------------|------------|------------|-----------------|
   . . . .      . . . .      . . . .

Guitar 1
E|-----------------|-----------------|-----------------|-----------------|
B|-----------------|-----------------|-----------------|-----------------|
G|-----------------|-----------------|-3-3-3-3-3-3-3-3-|-3-3-3-3-3-3-3-3-|
D|-3-3-3-3-3-3-3-3-|-3-3-3-3-3-3-3-3-|-3-3-3-3-3-3-3-3-|-3-3-3-3-3-3-3-3-|
A|-3-3-3-3-3-3-3-3-|-3-3-3-3-3-3-3-3-|-1-1-1-1-1-1-1-1-|-1-1-1-1-1-1-1-1-|
E|-1-1-1-1-1-1-1-1-|-1-1-1-1-1-1-1-1-|-----------------|-----------------|

Guitar 2
E|-------------------------|----------------------|-----------------|------------------|
B|-------------------------|----------------------|-----------------|------------------|
G|-10-10-10-10-10-10-10-10-|-10-10-10-10--9-9-9-9-|-7-7-7-7-7-7-7-7-|-7-7-7-7--9-9-9-9-|
D|--x--x--x--x--x--x--x--x-|--x--x--x--x--x-x-x-x-|-x-x-x-x-x-x-x-x-|-x-x-x-x--x-x-x-x-|
A|--8--8--8--8--8--8--8--8-|--8--8--8--8--7-7-7-7-|-5-5-5-5-5-5-5-5-|-5-5-5-5--7-7-7-7-|
E|-------------------------|----------------------|-----------------|------------------|

Guitar 1
E|------------|------------|------------|---|
B|------------|------------|------------|---|
G|----------7-|----------5-|----------3-|-5-|
D|-7-7-7-7--x-|-5-5-5-5--x-|-3-3-3-3--x-|-5-|
A|-5-5-5-5--5-|-3-3-3-3--3-|-1-1-1-1--1-|-3-|
E|------------|------------|------------|---|
   . . . .      . . . .      . . . .

Guitar 2
E|------------|------------|------------|---|
B|------------|------------|------------|---|
G|----------7-|----------9-|---------10-|-9-|
D|----------x-|----------x-|----------x-|-x-|
A|-5-5-5-5--5-|-7-7-7-7--7-|-8-8-8-8--8-|-7-|
E|------------|------------|------------|---|
   . . . .      . . . .      . . . .


--------------------
Interlude
--------------------


--------------------
Verse:
--------------------

Guitars 1 & 2 (Bass plays first by itself.)
E|----------------------------------------|
B|----------------------------------------|
G|----------------------------------------|
D|----------------------------------------|
A|----------------------------------------|
E|----------------------------------------|

Guitar 1
E|-17-|
B|--x-|
G|-14-|
D|----|
A|----|
E|----|

Guitar 2
E|----|
B|----|
G|----|
D|----|
A|----|
E|----|

Guitars 1 & 2
E|---------------------|
B|---------------------|
G|---------------------|
D|---------------------|
A|---------------------|
E|-x\------------------|
(Pickslide!)

Guitars 1 & 2
E|---------------------------|-------------------------|
B|---------------------------|-------------------------|
G|-5--5-5--5-5--5-5--5-5-5-5-|-5--5-5--5-5--5-x-x--3-3-|
D|-3--3-3--3-3--3-3--3-3-3-3-|-3--3-3--3-3--3-x-x--3-3-|
A|-5--5-5--5-5--5-5--5-5-5-5-|-5--5-5--5-5--5-x-x--1-1-|
E|---------------------------|-------------------------|

Guitars 1 & 2
E|-------------------------|---|
B|-------------------------|---|
G|-------------------------|-3-|
D|-3--3-3--3-3--3-3--3-3-3-|-3-|
A|-3--3-3--3-3--3-3--3-3-3-|-1-|
E|-1--1-1--1-1--1-1--1-1-1-|---|


--------------------
Pre-Chorus:
--------------------

Guitar 1
E|---------------------------|---------------------------|---------------------------|
B|---------------------------|---------------------------|---------------------------|
G|-5--5-5--5-5--5-5--5-5-5-5-|-5--5-5--5-5--5-5--5-5-5-5-|-3--3-3--3-3--3-3--3-3-3-3-|
D|-3--3-3--3-3--3-3--3-3-3-3-|-3--3-3--3-3--3-3--3-3-3-3-|-3--3-3--3-3--3-3--3-3-3-3-|
A|-5--5-5--5-5--5-5--5-5-5-5-|-3--3-3--3-3--3-3--3-3-3-3-|-1--1-1--1-1--1-1--1-1-1-1-|
E|---------------------------|---------------------------|---------------------------|

Guitar 2
E|---------------------------|---------------------------|---------------------------|
B|---------------------------|---------------------------|---------------------------|
G|-9--10--10-----------------|-9--10--12--10-------------|-9--10--10-----------------|
D|-x---x---x-----------------|-x---x---x---x-------------|-x---x---x-----------------|
A|-7---8---8-----------------|-7---8--10---8-------------|-7---8---8-----------------|
E|---------------------------|---------------------------|---------------------------|

Guitar 1
E|---------------------------|---------------------------|---------------------------|
B|---------------------------|---------------------------|---------------------------|
G|-3--3-3--3-3--3-3--3-3-3-3-|-5--5-5--5-5--5-5--5-5-5-5-|-5--5-5--5-5--5-5--5-5-5-5-|
D|-3--3-3--3-3--3-3--3-3-3-3-|-3--3-3--3-3--3-3--3-3-3-3-|-3--3-3--3-3--3-3--3-3-3-3-|
A|-1--1-1--1-1--1-1--1-1-1-1-|-5--5-5--5-5--5-5--5-5-5-5-|-3--3-3--3-3--3-3--3-3-3-3-|
E|---------------------------|---------------------------|---------------------------|

Guitar 2
E|---------------------------|---------------------------|---------------------------|
B|---------------------------|---------------------------|---------------------------|
G|-/5--3--2--0---------------|-9--10--10-----------------|-9--10--12--10-------------|
D|---------------------------|-x---x---x-----------------|-x---x---x---x-------------|
A|---------------------------|-7---8---8-----------------|-7---8--10---8-------------|
E|---------------------------|---------------------------|---------------------------|

Guitar 1
E|---------------------------|---|
B|---------------------------|---|
G|-3--3-3--3-3--3-3--3-3-3-3-|-5-|
D|-3--3-3--3-3--3-3--3-3-3-3-|-5-|
A|-1--1-1--1-1--1-1--1-1-1-1-|-3-|
E|---------------------------|---|

Guitar 2
E|---------------------------|---|
B|---------------------------|---|
G|-9--10--10-----------------|-9-|
D|-x---x---x-----------------|-x-|
A|-7---8---8-----------------|-7-|
E|---------------------------|---|

Guitar 1
E|---------------------------|---------------------------|---------------------------|
B|---------------------------|---------------------------|---------------------------|
G|-5--5-5--5-5--5-5--5-5-5-5-|-5--5-5--5-5--5-5--5-5-5-5-|-3--3-3--3-3--3-3--3-3-3-3-|
D|-3--3-3--3-3--3-3--3-3-3-3-|-3--3-3--3-3--3-3--3-3-3-3-|-3--3-3--3-3--3-3--3-3-3-3-|
A|-5--5-5--5-5--5-5--5-5-5-5-|-3--3-3--3-3--3-3--3-3-3-3-|-1--1-1--1-1--1-1--1-1-1-1-|
E|---------------------------|---------------------------|---------------------------|

Guitar 2
E|-------------------|-------------------|------8--------------|-8------------------------|
B|---5-6---5-6---5h6-|-----5-----5-6-5---|-------------10------|--------10-8-10-8h10p8----|
G|-7-----7-----7-----|-5-7---5-7-------7-|-9-10---9-10----9-10-|---9-10----------------10-|
D|-------------------|-------------------|---------------------|--------------------------|
A|-------------------|-------------------|---------------------|--------------------------|
E|-------------------|-------------------|---------------------|--------------------------|

Guitar 1
E|---------------------------|---------------------------|---------------------------|---|
B|---------------------------|---------------------------|---------------------------|---|
G|-5--5-5--5-5--5-5--5-5-5-5-|-5--5-5--5-5--5-5--5-5-5-5-|-3--3-3--3-3--3-3--3-3-3-3-|-5-|
D|-3--3-3--3-3--3-3--3-3-3-3-|-3--3-3--3-3--3-3--3-3-3-3-|-3--3-3--3-3--3-3--3-3-3-3-|-5-|
A|-5--5-5--5-5--5-5--5-5-5-5-|-3--3-3--3-3--3-3--3-3-3-3-|-1--1-1--1-1--1-1--1-1-1-1-|-3-|
E|---------------------------|---------------------------|---------------------------|---|

Guitar 2
E|-------------------|-------------------|------8--------------|-8-|
B|---5-6---5-6---5h6-|-----5-----5-6-5---|-------------10------|-8-|
G|-7-----7-----7-----|-5-7---5-7-------7-|-9-10---9-10----9-10-|---|
D|-------------------|-------------------|---------------------|---|
A|-------------------|-------------------|---------------------|---|
E|-------------------|-------------------|---------------------|---|


--------------------
Chorus
--------------------


--------------------
Outro:
--------------------

Guitar 1
E|---------|----------------------|---------|-------------------|
B|---------|----------------------|---------|-------------------|
G|-5--2--0-|-5--2--0----2--5b--5r-|-5--2--0-|-5---------------5-|
D|-3--3--3-|-3--3--3----3---------|-3--3--3-|-3--3-3-3-3-3-3--3-|
A|---------|----------------------|---------|-------------------|
E|---------|----------------------|---------|-------------------|
                                                 . . . . . .
Guitar 2
E|------------------------15b-15r-|-----------------------------|
B|--------------------------------|-----------------------------|
G|--------------------------------|-----------------------------|
D|--------------------------------|-----------------------------|
A|--------------------------------|-----------------------------|
E|--------------------------------|-----------------------------|
-----------------------------------------------------------------------------
5. I Don't Wanna Know

Tuning: EBGDAE

/ = SLIDE UP
\ = SLIDE DOWN
h = HAMMER ON
p = PULL OFF
. = PALM MUTE

--------------------
Intro:
--------------------

Guitar 1
E|------------------------|------------------------|
B|-------0-----------0----|-------0-----------0----|
G|-2--0-----0--2--0-----0-|-2--0-----0--2--0-----0-|
D|------------------------|------------------------|
A|----------------------0-|-3--3-----3--3--3-----0-|
E|-3--3-----3--3--3-------|------------------------|

Guitar 2
E|------------------------|------------------------|
B|------------------------|------------------------|
G|------------------------|------------------------|
D|------------------------|------------------------|
A|------------------------|------------------------|
E|------------------------|------------------------|

Guitar 1
E|------------------------|------------------------|
B|-------0-----------0----|-------0-----------0----|
G|-2--0-----0--2--0-----0-|-2--0-----0--2--0-----0-|
D|------------------------|------------------------|
A|----------------------0-|-3--3-----3--3--3-----0-|
E|-3--3-----3--3--3-------|------------------------|

Guitar 2
E|------------------------|------------------------|
B|------------------------|------------------------|
G|------------------------|------------------------|
D|------------------------|------------------------|
A|------------------------|------------------------|
E|------------------------|------------------------|

Guitar 1
E|------------------------|------------------------|
B|-------0-----------0----|-------0-----------0----|
G|-2--0-----0--2--0-----0-|-2--0-----0--2--0-----0-|
D|------------------------|------------------------|
A|----------0--3--3-----0-|----------0--3--3-----0-|
E|-3--3-------------------|-3--0-------------------|

Guitar 2
E|-3-3-3--3-3--3-3-3--3-3-|-3-3-3--3-3--3-3-3--3-3-|
B|-3-3-3--3-3--3-3-3--3-3-|-3-3-3--3-3--3-3-3--3-3-|
G|-0-0-0--0-0--0-0-0--0-0-|-0-0-0--0-0--0-0-0--0-0-|
D|-0-0-0--0-0--2-2-2--2-2-|-2-2-2--2-2--2-2-2--2-2-|
A|-2-2-2--2-2--3-3-3--3-3-|-2-2-2--2-2--3-3-3--3-3-|
E|-3-3-3--3-3-------------|-0-0-0--0-0-------------|

Guitar 1                    
E|------------------------|------------------------|
B|-------0-----------0----|-------0-----------0----|
G|-2--0-----0--2--0-----0-|-2--0-----0--2--0-----0-|
D|------------------------|------------------------|
A|----------0--3--3-----0-|----------0--3--3-----0-|
E|-3--3-------------------|-3--0-------------------|

Guitar 2 
E|-3-3-3--3-3--3-3-3--3-3-|-3-3-3--3-3--3-3-3--3-3-|
B|-3-3-3--3-3--3-3-3--3-3-|-3-3-3--3-3--3-3-3--3-3-|
G|-0-0-0--0-0--0-0-0--0-0-|-0-0-0--0-0--0-0-0--0-0-|
D|-0-0-0--0-0--2-2-2--2-2-|-2-2-2--2-2--2-2-2--2-2-|
A|-2-2-2--2-2--3-3-3--3-3-|-2-2-2--2-2--3-3-3--3-3-|
E|-3-3-3--3-3-------------|-0-0-0--0-0-------------|


--------------------
Verse:
--------------------

Guitar 1                    
E|------------------------|------------------------|
B|-------0-----------0----|-------0-----------0----|
G|-2--0-----0--2--0-----0-|-2--0-----0--2--0-----0-|
D|------------------------|------------------------|
A|----------------------0-|-3--3-----3--3--3-----0-|
E|-3--3-----3--3--3-------|------------------------|

Guitar 2
E|------------------------|------------------------|
B|------------------------|------------------------|
G|------------------------|------------------------|
D|------------------------|------------------------|
A|------------------------|------------------------|
E|------------------------|------------------------|

Guitar 1                    
E|------------------------|------------------------|
B|-------0-----------0----|-------0-----------0----|
G|-2--0-----0--2--0-----0-|-2--0-----0--2--0-----0-|
D|------------------------|------------------------|
A|----------------------0-|-3--3-----3--3--3-----0-|
E|-3--3-----3--3--3-------|------------------------|

Guitar 2
E|------------------------|------------------------|
B|------------------------|------------------------|
G|------------------------|------------------------|
D|------------------------|------------------------|
A|------------------------|------------------------|
E|------------------------|------------------------|

Guitar 1
E|------------------------|------------------------|
B|-------0-----------0----|-------0-----------0----|
G|-2--0-----0--2--0-----0-|-2--0-----0--2--0-----0-|
D|------------------------|------------------------|
A|----------------------0-|-3--3-----3--3--3-----0-|
E|-3--3-----3--3--3-------|------------------------|

Guitar 2
E|------------------------|------------------------|
B|------------------------|------------------------|
G|------------------------|------------------------|
D|------------------------|------------------------|
A|------------------------|------------------------|
E|------------------------|------------------------|

Guitar 1
E|------------------------|------------------------|
B|-------0-----------0----|-------0-----------0----|
G|-2--0-----0--2--0-----0-|-2--0-----0--2--0-----0-|
D|------------------------|------------------------|
A|----------------------0-|-3--3-----3--3--3-----0-|
E|-3--3-----3--3--3-------|------------------------|

Guitar 2
E|------------------------|------------------------|
B|------------------------|------------------------|
G|------------------------|------------------------|
D|------------------------|------------------------|
A|------------------------|------------------------|
E|------------------------|------------------------|

Guitar 1
E|------------|
B|-0--0--0--0-|
G|----------0-|
D|-2--2--0----|
A|------------|
E|------------|

Guitar 2
E|------------|
B|------------|
G|------------|
D|------------|
A|------------|
E|------------|

Guitar 1
E|---|
B|-1-|
G|-0-|
D|-2-|
A|-3-|
E|---|

Guitar 2
E|---|
B|---|
G|---|
D|---|
A|---|
E|---|


--------------------
Chorus:
--------------------

Guitars 1 & 2
E|-3--3--3--3----3--3--3--3-|-3--3--3--3----3--3--3--3-|
B|-3--3--3--3----3--3--3--3-|-3--3--3--3----3--3--3--3-|
G|-0--0--0--0----0--0--0--0-|-0--0--0--0----0--0--0--0-|
D|-0--0--0--0----2--2--2--2-|-2--2--2--2----2--2--2--2-|
A|-2--2--2--2----3--3--3--3-|-2--2--2--2----3--3--3--3-|
E|-3--3--3--3---------------|-0--0--0--0---------------|

Guitars 1 & 2
E|-3--3--3--3----3--3--3--3-|-3--3--3--3----3--3--3--3-|
B|-3--3--3--3----3--3--3--3-|-3--3--3--3----3--3--3--3-|
G|-0--0--0--0----0--0--0--0-|-0--0--0--0----0--0--0--0-|
D|-0--0--0--0----2--2--2--2-|-2--2--2--2----2--2--2--2-|
A|-2--2--2--2----3--3--3--3-|-2--2--2--2----3--3--3--3-|
E|-3--3--3--3---------------|-0--0--0--0---------------|

Guitars 1 & 2
E|-3--3--3--3----3--3--3--3-|-3--3--3--3----3--3--3--3-|
B|-3--3--3--3----3--3--3--3-|-3--3--3--3----3--3--3--3-|
G|-0--0--0--0----0--0--0--0-|-0--0--0--0----0--0--0--0-|
D|-0--0--0--0----2--2--2--2-|-2--2--2--2----2--2--2--2-|
A|-2--2--2--2----3--3--3--3-|-2--2--2--2----3--3--3--3-|
E|-3--3--3--3---------------|-0--0--0--0---------------|

Guitars 1 & 2
E|-3--3--3--3----3--3--3--3-|-3--3--3--3----2--2--2--2-|
B|-3--3--3--3----3--3--3--3-|-3--3--3--3----3--3--3--3-|
G|-0--0--0--0----0--0--0--0-|-0--0--0--0----2--2--2--2-|
D|-0--0--0--0----2--2--2--2-|-2--2--2--2----0--0--0--0-|
A|-2--2--2--2----3--3--3--3-|-2--2--2--2---------------|
E|-3--3--3--3---------------|-0--0--0--0---------------|


--------------------
Verse
--------------------


--------------------
Chorus
--------------------


--------------------
Bridge:
--------------------

Guitars 1 & 2
E|-0--0--0--0----0--0--0--0-|-2--2--2--2----2--2--2--2-|-0--0--0--0----0--0--0--0-|
B|-1--1--1--1----1--1--1--1-|-3--3--3--3----3--3--3--3-|-1--1--1--1----1--1--1--1-|
G|-0--0--0--0----0--0--0--0-|-2--2--2--2----2--2--2--2-|-0--0--0--0----0--0--0--0-|
D|-2--2--2--2----2--2--2--2-|-0--0--0--0----0--0--0--0-|-2--2--2--2----2--2--2--2-|
A|-3--3--3--3----3--3--3--3-|--------------------------|-3--3--3--3----3--3--3--3-|
E|--------------------------|--------------------------|--------------------------|

Guitars 1 & 2
E|-2--2--2--2----2--2--2--2-|-0--0--0--0----0--0--0--0-|-0--0--0--0----2--2--2--2-|
B|-3--3--3--3----3--3--3--3-|-0--0--0--0----0--0--0--0-|-0--0--0--0----3--3--3--3-|
G|-2--2--2--2----2--2--2--2-|-0--0--0--0----0--0--0--0-|-0--0--0--0----2--2--2--2-|
D|-0--0--0--0----0--0--0--0-|-2--2--2--2----2--2--2--2-|-2--2--2--2----0--0--0--0-|
A|--------------------------|-3--3--3--3----3--3--3--3-|-2--2--2--2---------------|
E|--------------------------|--------------------------|-0--0--0--0---------------|

Guitars 1 & 2
E|-0--0--0--0----0--0--0--0-|-2--2--2--2----2--2--2--2-|
B|-0--0--0--0----0--0--0--0-|-3--3--3--3----3--3--3--3-|
G|-0--0--0--0----0--0--0--0-|-2--2--2--2----2--2--2--2-|
D|-2--2--2--2----2--2--2--2-|-0--0--0--0----0--0--0--0-|
A|-3--3--3--3----3--3--3--3-|--------------------------|
E|--------------------------|--------------------------|


--------------------
Interlude:
--------------------

Guitar 1
E|-3----------------------|------------------------|
B|-3----------------------|------------------------|
G|-0----------------------|------------------------|
D|-0----------------------|------------------------|
A|-2----------------------|------------------------|
E|-3----------------------|------------------------|

Guitar 2
E|------------------------|------------------------|
B|-------0-----------0----|-------0-----------0----|
G|-2--0-----0--2--0-----0-|-2--0-----0--2--0-----0-|
D|------------------------|------------------------|
A|----------------------0-|-3--3-----3--3--3-----0-|

E|-3--3-----3--3--3-------|------------------------|

Guitar 1
E|------------------------|------------------------|
B|------------------------|------------------------|
G|------------------------|------------------------|
D|------------------------|------------------------|
A|------------------------|------------------------|
E|------------------------|---------------x-x--10\-|

Guitar 2
E|------------------------|------------------------|
B|-------0-----------0----|-------0-----------0----|
G|-2--0-----0--2--0-----0-|-2--0-----0--2--0-----0-|
D|------------------------|------------------------|
A|----------------------0-|-3--3-----3--3--3-----0-|
E|-3--3-----3--3--3-------|------------------------|


--------------------
Chorus
--------------------


--------------------
End On:
--------------------

Guitars 1 & 2
E|-3-|
B|-3-|
G|-0-|
D|-0-|
A|-2-|
E|-3-|
-----------------------------------------------------------------------------
6. Your Biggest Mistake

Tuning:DADGBE

/ = SLIDE UP
\ = SLIDE DOWN
b = BEND
h = HAMMER ON
p = PULL OFF
. = PALM MUTE
+ = HARMONIC

Q = 164

--------------------
Intro:
--------------------

Guitar 1 (With flanger added.)
E|-------------|-------------|-------------|----------------------|
B|-------------|-------------|-------------|----------------------|
G|-------------|-------------|-----------2-|----------------------|
D|-------------|-------------|-----4-------|----------------------|
A|-------------|-4-0-------4-|-------4-4---|-3----------4---------|
D|-0-0-0-0-0-0-|-----5-0-0---|-0-0---------|-3--2.6--5-----3--2.6-|
   . . . . . .                               +   +   +  +  +   +

Guitar 2
E|----------------------------------------------------------------|
B|----------------------------------------------------------------|
G|----------------------------------------------------------------|
D|----------------------------------------------------------------|
A|----------------------------------------------------------------|
D|----------------------------------------------------------------|

Guitar 1
E|-------------|-----------|
B|-------------|-----------|
G|-----------2-|-----------|
D|-----4-------|-----------|
A|-------4-4---|-3---------|
D|-0-0---------|-3--2.6--5-|
                 +   +   +
Guitar 2
E|------------------------|-----|
B|------------------------|-----|
G|------------------------|-----|
D|------------------------|-----|
A|------------------------|-----|
D|------------------------|-0-0-|
                            . .
Guitar 1
E|------------|----------|------------|------------|
B|------------|----------|------------|------------|
G|------------|-6--x-2-2-|------------|-6--x-2-2-0-|
D|-2--x-6-6-x-|-6--x-2-2-|-2--x-6-6-x-|-6--x-2-2-0-|
A|-2--x-6-6-x-|-4--x-0-0-|-2--x-6-6-x-|-4--x-0-0-0-|
D|-2--x-6-6-x-|----------|-2--x-6-6-x-|----------0-|

Guitar 2
E|----------------------|----------|----------------------|-----------|
B|----------------------|----------|----------------------|-----------|
G|-13/14--12--13/14--12-|-11--9--9-|-13/14--12--13/14--12-|-11--13--9-|
D|--x------x---x------x-|--x--x--x-|--x------x---x------x-|--x---x--x-|
A|-11/12--10--11/12--10-|--9--7--7-|-11/12--10--11/12--10-|--9--11--7-|
D|----------------------|----------|----------------------|-----------|

Guitar 1
E|------------|------------|------------|----------|
B|------------|------------|------------|----------|
G|------------|-6--x-2-2-0-|------------|-6--x-2-2-|
D|-2--x-6-6-x-|-6--x-2-2-0-|-2--x-6-6-x-|-6--x-2-2-|
A|-2--x-6-6-x-|-4--x-0-0-0-|-2--x-6-6-x-|-4--x-0-0-|
D|-2--x-6-6-x-|----------0-|-2--x-6-6-x-|----------|

Guitar 2
E|--------------|----------|--------------|-----------|
B|--------------|----------|--------------|-----------|
G|-13/14--13/14-|-11--9--9-|-13/14--13/14-|-11--13--9-|
D|--x------x----|--x--x--x-|--x------x----|--x---x--x-|
A|-11/12--11/12-|--9--7--7-|-11/12--11/12-|--9--11--7-|
D|--------------|----------|--------------|-----------|

Guitar 1
E|-------------|-------------|-------------|-------------|
B|-------------|-------------|-------------|-------------|
G|-----1---1---|-----1---1---|-----1---1---|-----1---1---|
D|---2---2---2-|---2---2---2-|---2---2---2-|---2---2---2-|
A|-2-----------|-0-----------|-2-----------|-0-----------|
D|-------------|-------------|-------------|-------------|

Guitar 2
E|-------------|-------------|-------------|-------------|
B|-------------|-------------|-------------|-------------|
G|-9\----------|-------------|-------------|-------------|
D|-x-----------|-------------|-------------|-------------|
A|-7\----------|---------0---|-2-----------|-------------|
D|-------------|---------0---|-2-----------|-------------|
                         .     .
Guitar 3
E|-------------|-------------|-------------|-------------|
B|-------------|-------------|-------------|-------------|
G|-------------|-------------|-------------|-------------|
D|-------------|-------------|-------------|-------------|
A|-7-7-7-7-7-7-|-7-7-7-7-7-7-|-7-7-7-7-7-7-|-7-7-7-7-7-7-|
D|-------------|-------------|-------------|-------------|
   + + + + + +   + + + + + +   + + + + + +   + + + + + +


--------------------
Verse:
--------------------

Guitars 1 & 2
E|-----------------|-----------------|-----------------|-----------------|
B|-----------------|-----------------|-----------------|-----------------|
G|-----------------|-----------------|-----------------|-2--2-2-2--2-2-0-|
D|-2-----------2-0-|-6-----------6-0-|-7-----------7-0-|-2--2-2-2--2-2-0-|
A|-2-----------2-0-|-4--4-4-4-4--4-0-|-5--5-5-5-5--5-0-|-0--0-0-0--0-0-0-|
D|-2--2-2-2-2--2-0-|-----------------|-----------------|---------------0-|
      . . . .           . . . .           . . . .

Guitars 1 & 2
E|-----------------|-----------------|-----------------|-----------------|
B|-----------------|-----------------|-----------------|-----------------|
G|-----------------|-----------------|-----------------|-2-2-2-2-2-2-2-0-|
D|-2-----------2-0-|-6-----------6-0-|-7-----------7-0-|-2-2-2-2-2-2-2-0-|
A|-2-----------2-0-|-4--4-4-4-4--4-0-|-5--5-5-5-5--5-0-|-0-0-0-0-0-0-0-0-|
D|-2--2-2-2-2--2-0-|-----------------|-----------------|---------------0-|
      . . . .           . . . .           . . . .

Guitars 1 & 2
E|---------------|---------------|---------------|-----------------|
B|---------------|---------------|---------------|-----------------|
G|---------------|-6--6-6--6-6-6-|-7--7-7--7-7-7-|-2-2-2-2-2-2-2-0-|
D|-2--2-2--2-2-2-|-6--6-6--6-6-6-|-7--7-7--7-7-7-|-2-2-2-2-2-2-2-0-|
A|-2--2-2--2-2-2-|-4--4-4--4-4-4-|-5--5-5--5-5-5-|-0-0-0-0-0-0-0-0-|
D|-2--2-2--2-2-2-|---------------|---------------|---------------0-|

Guitars 1 & 2
E|---------------|---------------|---------------|-----------------|
B|---------------|---------------|---------------|-----------------|
G|---------------|-6--6-6--6-6-6-|-7--7-7--7-7-7-|-2-2-2-2-2-2-2-0-|
D|-2--2-2--2-2-2-|-6--6-6--6-6-6-|-7--7-7--7-7-7-|-2-2-2-2-2-2-2-0-|
A|-2--2-2--2-2-2-|-4--4-4--4-4-4-|-5--5-5--5-5-5-|-0-0-0-0-0-0-0-0-|
D|-2--2-2--2-2-2-|---------------|---------------|---------------0-|


--------------------
Chorus:
--------------------

Guitar 1
E|------------|------------|------------|-----------|
B|------------|------------|------------|-----------|
G|------------|-6--x-2-2-0-|------------|-6--9--9-0-|
D|-2--x-6-6-x-|-6--x-2-2-0-|-2--x-6-6-x-|-6--9--9-0-|
A|-2--x-6-6-x-|-4--x-0-0-0-|-2--x-6-6-x-|-4--7--7-0-|
D|-2--x-6-6-x-|----------0-|-2--x-6-6-x-|---------0-|

Guitar 2
E|------------|------------|------------|-----------|
B|------------|------------|------------|-----------|
G|------------|------------|------------|----6------|
D|------------|------------|------------|-7-----9---|
A|------------|------------|------------|-----------|
D|------------|------------|------------|-----------|

Guitar 3
E|------------|------------|------------|-----------|
B|------------|------------|------------|-----------|
G|------------|------------|------------|-----------|
D|------------|------------|------------|-7--9--9---|
A|------------|------------|------------|-----------|
D|------------|------------|------------|-----------|

Guitar 1
E|------------|------------|------------|-----------|
B|------------|------------|------------|-----------|
G|------------|-6--x-2-2-0-|------------|---------0-|
D|-2--x-6-6-x-|-6--x-2-2-0-|-4--x-6-6-6-|-7--9--9-0-|
A|-2--x-6-6-x-|-4--x-0-0-0-|-4--x-6-6-6-|-7--9--9-0-|
D|-2--x-6-6-x-|----------0-|-4--x-6-6-6-|-7--9--9-0-|

Guitar 2
E|------------|------------|------------|-----------|
B|------------|------------|------------|-----------|
G|------------|------------|------------|-----------|
D|-9----------|------------|------------|-----------|
A|------------|------------|------------|-----------|
D|------------|------------|------------|-----------|

Guitar 3
E|------------|------------|------------|-----------|
B|------------|------------|------------|-----------|
G|------------|------------|------------|-----------|
D|------------|------------|------------|-----------|
A|-7----------|------------|------------|-----------|
D|------------|------------|------------|-----------|

Guitar 1
E|------------|------------|------------|-----------|
B|------------|------------|------------|-----------|
G|------------|-6--x-2-2-0-|------------|-6--9--9-0-|
D|-2--x-6-6-x-|-6--x-2-2-0-|-2--x-6-6-x-|-6--9--9-0-|
A|-2--x-6-6-x-|-4--x-0-0-0-|-2--x-6-6-x-|-4--7--7-0-|
D|-2--x-6-6-x-|----------0-|-2--x-6-6-x-|---------0-|

Guitar 2
E|------------|------------|------------|-----------|
B|------------|------------|------------|-----------|
G|------------|------------|------------|----6------|
D|------------|------------|------------|-7-----9---|
A|------------|------------|------------|-----------|
D|------------|------------|------------|-----------|

Guitar 3
E|------------|------------|------------|-----------|
B|------------|------------|------------|-----------|
G|------------|------------|------------|-----------|
D|------------|------------|------------|-7--9--9---|
A|------------|------------|------------|-----------|
D|------------|------------|------------|-----------|

Guitar 1
E|------------|------------|------------|-----------|
B|------------|------------|------------|-----------|
G|------------|-6--x-2-2-0-|------------|---------0-|
D|-2--x-6-6-x-|-6--x-2-2-0-|-4--x-6-6-6-|-7--9--9-0-|
A|-2--x-6-6-x-|-4--x-0-0-0-|-4--x-6-6-6-|-7--9--9-0-|
D|-2--x-6-6-x-|----------0-|-4--x-6-6-6-|-7--9--9-0-|

Guitar 2
E|------------|------------|------------|-----------|
B|------------|------------|------------|-----------|
G|------------|------------|------------|-----------|
D|-9----------|------------|------------|-----------|
A|------------|------------|------------|-----------|
D|------------|------------|------------|-----------|

Guitar 3
E|------------|------------|------------|-----------|
B|------------|------------|------------|-----------|
G|------------|------------|------------|-----------|
D|------------|------------|------------|-----------|
A|-7----------|------------|------------|-----------|
D|------------|------------|------------|-----------|


--------------------
Verse:
--------------------

Guitars 1 & 2
E|------------|------------|-----------|-----------------|
B|------------|------------|-----------|-----------------|
G|------------|------------|-----------|-2-2-2-2-2-2-2-0-|
D|-2----------|-(2)--------|-(2)-------|-2-2-2-2-2-2-2-0-|
A|-2----------|-(2)--------|-(2)-------|-0-0-0-0-0-0-0-0-|
D|-2----------|-(2)--------|-(2)-------|---------------0-|

Guitars 1 & 2
E|-----------------|-----------------|-----------------|-----------------|
B|-----------------|-----------------|-----------------|-----------------|
G|-----------------|-----------------|-----------------|-2-2-2-2-2-2-2-0-|
D|-2-----------2-0-|-6-----------6-0-|-7-----------7-0-|-2-2-2-2-2-2-2-0-|
A|-2-----------2-0-|-4--4-4-4-4--4-0-|-5--5-5-5-5--5-0-|-0-0-0-0-0-0-0-0-|
D|-2--2-2-2-2--2-0-|-----------------|-----------------|---------------0-|
      . . . .           . . . .           . . . .

Guitars 1 & 2
E|---------------|---------------|---------------|-----------------|
B|---------------|---------------|---------------|-----------------|
G|---------------|-6--6-6--6-6-6-|-7--7-7--7-7-7-|-2-2-2-2-2-2-2-0-|
D|-2--2-2--2-2-2-|-6--6-6--6-6-6-|-7--7-7--7-7-7-|-2-2-2-2-2-2-2-0-|
A|-2--2-2--2-2-2-|-4--4-4--4-4-4-|-5--5-5--5-5-5-|-0-0-0-0-0-0-0-0-|
D|-2--2-2--2-2-2-|---------------|---------------|---------------0-|

Guitars 1 & 2
E|---------------|---------------|---------------|-----------------|
B|---------------|---------------|---------------|-----------------|
G|---------------|-6--6-6--6-6-6-|-7--7-7--7-7-7-|-2-2-2-2-2-2-2-0-|
D|-2--2-2--2-2-2-|-6--6-6--6-6-6-|-7--7-7--7-7-7-|-2-2-2-2-2-2-2-0-|
A|-2--2-2--2-2-2-|-4--4-4--4-4-4-|-5--5-5--5-5-5-|-0-0-0-0-0-0-0-0-|
D|-2--2-2--2-2-2-|---------------|---------------|---------------0-|


--------------------
Chorus:
--------------------

Guitar 1
E|------------|------------|------------|-----------|
B|------------|------------|------------|-----------|
G|------------|-6--x-2-2-0-|------------|-6--9--9-0-|
D|-2--x-6-6-x-|-6--x-2-2-0-|-2--x-6-6-x-|-6--9--9-0-|
A|-2--x-6-6-x-|-4--x-0-0-0-|-2--x-6-6-x-|-4--7--7-0-|
D|-2--x-6-6-x-|----------0-|-2--x-6-6-x-|---------0-|

Guitar 2
E|------------|------------|------------|-----------|
B|------------|------------|------------|-----------|
G|------------|------------|------------|----6------|
D|------------|------------|------------|-7-----9---|
A|------------|------------|------------|-----------|
D|------------|------------|------------|-----------|

Guitar 3
E|------------|------------|------------|-----------|
B|------------|------------|------------|-----------|
G|------------|------------|------------|-----------|
D|------------|------------|------------|-7--9--9---|
A|------------|------------|------------|-----------|
D|------------|------------|------------|-----------|

Guitar 1
E|------------|------------|------------|-----------|
B|------------|------------|------------|-----------|
G|------------|-6--x-2-2-0-|------------|---------0-|
D|-2--x-6-6-x-|-6--x-2-2-0-|-4--x-6-6-6-|-7--9--9-0-|
A|-2--x-6-6-x-|-4--x-0-0-0-|-4--x-6-6-6-|-7--9--9-0-|
D|-2--x-6-6-x-|----------0-|-4--x-6-6-6-|-7--9--9-0-|

Guitar 2
E|------------|------------|------------|-----------|
B|------------|------------|------------|-----------|
G|------------|------------|------------|-----------|
D|-9----------|------------|------------|-----------|
A|------------|------------|------------|-----------|
D|------------|------------|------------|-----------|

Guitar 3
E|------------|------------|------------|-----------|
B|------------|------------|------------|-----------|
G|------------|------------|------------|-----------|
D|------------|------------|------------|-----------|
A|-7----------|------------|------------|-----------|
D|------------|------------|------------|-----------|

Guitar 1
E|------------|------------|------------|-----------|
B|------------|------------|------------|-----------|
G|------------|-6--x-2-2-0-|------------|-6--9--9-0-|
D|-2--x-6-6-x-|-6--x-2-2-0-|-2--x-6-6-x-|-6--9--9-0-|
A|-2--x-6-6-x-|-4--x-0-0-0-|-2--x-6-6-x-|-4--7--7-0-|
D|-2--x-6-6-x-|----------0-|-2--x-6-6-x-|---------0-|

Guitar 2
E|------------|------------|------------|-----------|
B|------------|------------|------------|-----------|
G|------------|------------|------------|----6------|
D|------------|------------|------------|-7-----9---|
A|------------|------------|------------|-----------|
D|------------|------------|------------|-----------|

Guitar 3
E|------------|------------|------------|-----------|
B|------------|------------|------------|-----------|
G|------------|------------|------------|-----------|
D|------------|------------|------------|-7--9--9---|
A|------------|------------|------------|-----------|
D|------------|------------|------------|-----------|

Guitar 1
E|------------|------------|------------|-----------|
B|------------|------------|------------|-----------|
G|------------|-6--x-2-2-0-|------------|---------0-|
D|-2--x-6-6-x-|-6--x-2-2-0-|-4--x-6-6-6-|-7--9--9-0-|
A|-2--x-6-6-x-|-4--x-0-0-0-|-4--x-6-6-6-|-7--9--9-0-|
D|-2--x-6-6-x-|----------0-|-4--x-6-6-6-|-7--9--9-0-|

Guitar 2
E|------------|------------|------------|-----------|
B|------------|------------|------------|-----------|
G|------------|------------|------------|-----------|
D|-9----------|------------|------------|-----------|
A|------------|------------|------------|-----------|
D|------------|------------|------------|-----------|

Guitar 3
E|------------|------------|------------|-----------|
B|------------|------------|------------|-----------|
G|------------|------------|------------|-----------|
D|------------|------------|------------|-----------|
A|-7----------|------------|------------|-----------|
D|------------|------------|------------|-----------|

Guitar 1
E|----------------|-----------------|-------------------------|
B|----------------|-------------0---|-------------------------|
G|----------------|-------------0---|-------------------------|
D|-2--------------|-------------0---|-------------------------|
A|-2--------------|-------------0---|-------------------------|
D|-2--2-2-2-2-2-2-|-----------------|-------------x\----------|
      . . . . . .                            (Pickslide!)

Guitar 2
E|----------------|-----------------|-------------------------|
B|----------------|-----------------|-------------------------|
G|----------------|-----------------|-------------------------|
D|-2--------------|-----------------|-------------------------|
A|-2--------------|-2-2-2-2-2-2-2-2-|-2b-2b-2b-2b-2b-2b-2b-2b-|
D|-2--2-2-2-2-2-2-|-----------------|-------------------------|
      . . . . . .


--------------------
Interlude:
--------------------

Guitar 1
E|----------------|----------------|----------------|----------------|
B|----------------|-2-2-2----------|----------------|-2-2-2----------|
G|-4-4-4-2--2-2-2-|-2-2-2-2--2-2-2-|-4-4-4-2--2-2-2-|-2-2-2-2--2-2-2-|
D|-2-2-2-0--0-0-0-|-2-2-2-0--0-0-0-|-2-2-2-0--0-0-0-|-2-2-2-0--0-0-0-|
A|-2-2-2-0--0-0-0-|-0-0-0-0--0-0-0-|-2-2-2-0--0-0-0-|-0-0-0-0--0-0-0-|
D|-2-2-2-0--0-0-0-|-------0--0-0-0-|-2-2-2-0--0-0-0-|-------0--0-0-0-|


Guitar 2
E|----------------|----------------|----------------|----------------|
B|----------------|----------------|----------------|----------------|
G|----------------|---------4------|----------------|-4--------------|
D|-4-4-2-2------2-|---2-4/6---6-4b-|-0-0-4b---4-2-0-|---6-4-2--------|
A|----------4-2---|-2--------------|----------------|----------------|
D|----------------|----------------|----------------|----------------|

Guitar 3
E|-------------------|-------------------|------------------|------------|
B|-------------------|-------------------|------------------|-12-9-------|
G|-11-11-9-9-------9-|---9-11-9------11b-|-x-0-11b---11-9-x-|------11-9\-|
D|------------11-9---|-9--------11-9-----|------------------|------------|
A|-------------------|-------------------|------------------|------------|
D|-------------------|-------------------|------------------|------------|


--------------------
Bridge:
--------------------

Guitar 1
E|----------------|----------------|----------------|----------------|
B|----------------|-2-2-2----------|----------------|-2-2-2----------|
G|-4-4-4-2--2-2-2-|-2-2-2-2--2-2-2-|-4-4-4-2--2-2-2-|-2-2-2-2--2-2-2-|
D|-2-2-2-0--0-0-0-|-2-2-2-0--0-0-0-|-2-2-2-0--0-0-0-|-2-2-2-0--0-0-0-|
A|-2-2-2-0--0-0-0-|-0-0-0-0--0-0-0-|-2-2-2-0--0-0-0-|-0-0-0-0--0-0-0-|
D|-2-2-2-0--0-0-0-|-------0--0-0-0-|-2-2-2-0--0-0-0-|-------0--0-0-0-|

Guitar 2
E|-----------------|-----------------|-------------------------|-------------------------|
B|-----------------|-----------------|-------------------------|-------------------------|
G|-9-9-9-9-9-9-9-9-|-9-9-9-9-9-6-6-6-|-13-13-13-13-13-13-13-13-|-13-13-13-13-13-13-13-13-|
D|-x-x-x-x-x-x-x-x-|-x-x-x-x-x-x-x-x-|--x--x--x--x--x--x--x--x-|--x--x--x--x--x--x--x--x-|
A|-7-7-7-7-7-7-7-7-|-7-7-7-7-7-4-4-4-|-11-11-11-11-11-11-11-11-|-11-11-11-11-11-11-11-11-|
D|-----------------|-----------------|-------------------------|-------------------------|

Guitar 1
E|----------------|----------------|----------------|-----------------|-----------------|
B|----------------|-2-2-2----------|-2-2-2----------|-----------------|-----------------|
G|-4-4-4-2--2-2-2-|-2-2-2-2--2-2-2-|-2-2-2-2--2-2---|-4-4-4-4-4-4-4-4-|-4-4-4-4-4-4-4-0-|
D|-2-2-2-0--0-0-0-|-2-2-2-0--0-0-0-|-2-2-2-0--0-0-0-|-4-4-4-4-4-4-4-4-|-4-4-4-4-4-4-4-0-|
A|-2-2-2-0--0-0-0-|-0-0-0-0--0-0-0-|-0-0-0-0--0-0-0-|-2-2-2-2-2-2-2-2-|-2-2-2-2-2-2-2-0-|
D|-2-2-2-0--0-0-0-|-------0--0-0-0-|-------0--0-0-0-|-----------------|---------------0-|

Guitar 2
E|-----------------|-----------------|-------------------------|-------------------------|
B|-----------------|-----------------|-------------------------|-------------------------|
G|-9-9-9-9-9-9-9-9-|-9-9-9-9-9-6-6-6-|-13-13-13-13-13-13-13-13-|-16-16-16-16-16-16-16-16-|
D|-x-x-x-x-x-x-x-x-|-x-x-x-x-x-x-x-x-|--x--x--x--x--x--x--x--x-|--x--x--x--x--x--x--x--x-|
A|-7-7-7-7-7-7-7-7-|-7-7-7-7-7-4-4-4-|-11-11-11-11-11-11-11-11-|-14-14-14-14-14-14-14-14-|
D|-----------------|-----------------|-------------------------|-------------------------|

-------------------------|
-------------------------|
-16-16-16-16-16-16-16-16-|
--x--x--x--x--x--x--x--x-|
-14-14-14-14-14-14-14-14-|
-------------------------|


Guitar 1
E|-----------------|-----------------|-----------------|-----------------|
B|-----------------|-----------------|-----------------|-----------------|
G|-----------------|-----------------|-----------------|-----------------|
D|-2---------------|-----------------|-----------------|---0-0-----------|
A|-2---------------|-----------------|-----------------|-x-0-0-----------|
D|-2---------------|-----------------|-----------------|---0-0-----------|
                                                           . .
Guitar 2
E|-----------------|-----------------|-----------------|-----------------|
B|-----------------|-----------------|-----------------|-----------------|
G|-9---------------|-----------------|-----------------|-----0-----------|
D|-x---------------|-----------------|-----------------|---0-0-----------|
A|-7---------------|-----------------|-----------------|---0-0-----------|
D|-----------------|-----------------|-----------------|-----------------|
                                                           . .

--------------------
Chorus
--------------------


--------------------
Outro:
--------------------

Guitar 1
E|------------|------------|------------|-----------|
B|------------|------------|------------|-----------|
G|------------|-6--x-2-2-0-|------------|-6--9--9-0-|
D|-2--x-6-6-x-|-6--x-2-2-0-|-2--x-6-6-x-|-6--9--9-0-|
A|-2--x-6-6-x-|-4--x-0-0-0-|-2--x-6-6-x-|-4--7--7-0-|
D|-2--x-6-6-x-|----------0-|-2--x-6-6-x-|---------0-|

Guitar 2
E|--------------|----------|----------------------|-----------|
B|--------------|----------|----------------------|-----------|
G|-13/14--13/14-|-11--9--9-|-13/14--12--13/14--12-|-11--13--9-|
D|--x------x----|--x--x--x-|--x------x---x------x-|--x---x--x-|
A|-11/12--11/12-|--9--7--7-|-11/12--10--11/12--10-|--9--11--7-|
D|--------------|----------|----------------------|-----------|

Guitar 1
E|------------|------------|------------|-----------|
B|------------|------------|------------|-----------|
G|------------|-6--x-2-2-0-|------------|-6--9--9-0-|
D|-2--x-6-6-x-|-6--x-2-2-0-|-2--x-6-6-x-|-6--9--9-0-|
A|-2--x-6-6-x-|-4--x-0-0-0-|-2--x-6-6-x-|-4--7--7-0-|
D|-2--x-6-6-x-|----------0-|-2--x-6-6-x-|---------0-|

Guitar 2
E|--------------|------------|---------|-----------|
B|--------------|------------|---------|-----------|
G|-13/14--13/14-|-11--9-9--9-|-11----9-|-14----13\-|
D|--x------x----|--x--x-x--x-|--x----x-|--x-----x--|
A|-11/12--11/12-|--9--7-7--7-|--9----7-|-12----11\-|
D|--------------|------------|---------|-----------|

Guitar 1
E|-------------|-------------|-------------|-------------|---|
B|-------------|-------------|-------------|-------------|---|
G|-----1---1---|-----1---1---|-----1---1---|-----1---1---|---|
D|---2---2---2-|---2---2---2-|---2---2---2-|---2---2---2-|---|
A|-2-----------|-0-----------|-2-----------|-0-----------|-2-|
D|-------------|-------------|-------------|-------------|-2-|

Guitar 2
E|-------------|-------------|-------------|-------------|---|
B|-------------|-------------|-------------|-------------|---|
G|-------------|-------------|-------------|-------------|---|
D|-------------|-------------|-------------|-------------|---|
A|-------------|-------------|-------------|-------------|---|
D|-------------|-------------|-------------|-------------|---|
-----------------------------------------------------------------------------
7. Doubt Full

Intro:

E--------------------------------------------------------|
B--------------------------------------------------------|
G--------------------------------------------------------|
D--------------------------------------------------------|
A-4h7--4h7------------4h7--4h7p4-------------------------|
E-----------4h7--4h7--------------4h7--4h7---------------|


E--------------------------------------------------------|
B--------------------------------------------------------|
G--------------------------------------------------------|
D--------------------------------------6/9---------------|
A-4h7--4h7------------4h7--4h7p4-------6/9---------------|
E-----------4h7--4h7--------------4h7--4/7---------------|
 
(both bars above twice. first time they are on their own, then
the second time the other instruments kick in)


Verse:

E----------------------------------------------------------------------|
B----------------------------------------------------------------------|
G-66-666----------66-666----------4--66-666----------66-666------------|
D-66-666--66-666--66-666--66-666--4--66-666--66-666--66-666------6/9---|
A-44-444--66-666--44-444--66-666--2--44-444--66-666--44-444------6/9---|
E---------44-444----------44-444-------------44-444----------4h7-4/7---|
  
 ^play this 3x, and that's 1 verse^


above verse (3x)

intro (1x0

Verse (x2)


Chorus:

E--------------------------------------------------------|
B--------------------------------------------------------|
G--------------666----------------666----------------666-|
D-777777--222--666---777777--222--666---777777--222--666-|
A-777777--222--444---777777--222--444---777777--222--444-|
E-555555--000--------555555--000--------555555--000------|

E----------------------|
B----------------------|
G----------------------|
D-777777--999--101010--|
A-777777--999--101010--|
E-555555--777--8 8 8---|

chorus (1x)

intro (x1)

(the strumming on the chorus is not there but the amount of times each
bar chord gets played is exact)

verse (x2)

chorus (x2)

then this bridge

Bridge:

E--------------------------------------------|
B--------------------------------------------|
G-6h9--6h9------------6h9--6h9p4-------------|
D-----------6h9--6h9--------------6h9--6h9---|
A--------------------------------------------|
E--------------------------------------------|

PLay the above bridge twice (x2) but the second time. have the first bar of the original 
played over the top of it by guitar 2

then a breakdown bit

Breakdown:

E--------------------|                               E-------------------|
B--------------------|                               B-------------------|
G-66-----------------|   <--- PLay this part 5 times G-66------44444444--|
D-66--77--66--44--22-|   then on the 6th play -----> D-66--22--44444444--|
A-44--77--66--44--22-|                               A-44--22--22222222--|
E-----55--44--22--00-|                               E-----00------------|


Then Play the Chorus Again              E------------------------------|
tiwce (x2) but play this   -------->    B------------------------------|
at the end of the 2nd time through      G------------------------------|
                                        D-777777--9999999999--101010---|
NOTE: the 9/7 bar chord is played lots  A-777777--9999999999--101010---|
more times.                             E-555555--7777777777--8 8 8 ---|

intro (x1)
-----------------------------------------------------------------------------
8. Failure's Not Flattering (What's Your Problem?)

Tuning: EADGBE (Standard)

 / = slide up
 \ = slide down
 h = hammer-on
 p = pull-off
 ~ = vibrato
 + = harmonic
 x = Mute note


Intro/Chorus
e|---------------------------------------------------------------------------|
B|---------------------------------------------------------------------------|
G|-777777/14----------444444444----------------------------------------------|
D|-777777/14-55555555-444444444-777777-44/5----------------------------------| x4
A|-555555/12-55555555-222222222-777777-44/5----------------------------------|
E|-----------33333333-----------555555-22/3----------------------------------|




Guitar 1/Synth(After 2nd Time Through Intro):

e|---------------------------------------------------------------------------|
B|---------------------------------------------------------------------------|
G|-9-6---7-6-----------------------------------------------------------------|
D|-----7-----7-9-4-5-7-4--5-7-4--5-7-----------------------------------------| x2
A|---------------------------------------------------------------------------|
E|---------------------------------------------------------------------------|




Verse 1:(pm)

e|---------------------------------------------------------------------------|
B|---------------------------------------------------------------------------|
G|-77777777----------44442222------------------------------------------------|
D|-77777777-55555555-44442222-55555555---------------------------------------| x4
A|-55555555-55555555-22220000-55555555---------------------------------------|
E|----------33333333----------33333333---------------------------------------|




Pre-Chorus:

e|---------------------------------------------------------------------------|
B|---------------------------------------------------------------------------|
G|-11111111-77777777-11/12-11-9-11-9-77777777--------------------------------|
D|-11111111-77777777-11/12-11-9-11-9-77777777--------------------------------| x1
A|-99999999-55555555-9-/10-9--7-9--7-55555555--------------------------------|
E|---------------------------------------------------------------------------|


THEN:


4x Chorus/Intro

4x Verse 1

1x Pre-Chorus

2x Chorus


Post Chorus:

e|---------------------------------------------------------------------------|
B|---------------------------------------------------------------------------|
G|-777-999-777-111-99-7-9--777-999-777-141414-11-9-11------------------------|
D|-777-999-777-111-99-7-9--777-999-777-141414-11-9-11------------------------| x2
A|-555-777-555-999-77-5-7--555-777-555-121212-99-7-9-------------------------|
E|---------------------------------------------------------------------------|


e|---------------------------------------------------------------------------|
B|---------------------------------------------------------------------------|
G|-7777777-------------------------------------------------------------------|
D|-7777777-55555555-2222222-55555555-----------------------------------------| x2
A|-5555555-55555555-2222222-55555555-----------------------------------------|
E|---------33333333-0000000-33333333-----------------------------------------|



2x Pre-Chorus


Bridge:

e|---------------------------------------------------------------------------|
B|---------------------------------------------------------------------------|
G|-77777777/14-12-11-9--7-444444-222222--------------------------------------|
D|-xxxxxxxx/xx-xx-x--x--x-444444-222222-44/5---------------------------------| x2
A|-55555555/12-10-9--7--5-222222-000000-44/5---------------------------------|
E|--------------------------------------22/3---------------------------------|


4x Chorus
4x Intro/Guitar 1
-----------------------------------------------------------------------------
9. Over The Head, Below The Knees

Tuning: Drop D (D A D G B e)


Intro
e|----------------------------    ----------------------------|
B|----------------------------    ----------------------------|
G|----------------------------    ----------------------------|
D|--5-5-5-5-5-5-0-0-0-0-0-0--- x4 --0-2-0-2-0-----------------|
A|--5-5-5-5-5-5-0-0-0-0-0-0---    ----------------------------|
D|--5-5-5-5-5-5-0-0-0-0-0-0---    ----------------------------|
[P.M.]. . . . . . . . . . .


Chorus - There are 2 ways to play this, but it is difficult to hit
the higher chords on some guitars
e|-----------------------      ---------------------------------|
B|-----------------------      ---------------------------------|
G|-----------------------      ---------------------------------|
D|--55-0000-11-1111------  OR  --1717-12121212-1313-13131313----| x3
A|--55-0000-11-1111------      --1717-12121212-1313-13131313----|
D|--55-0000-11-1111------      --1717-12121212-1313-13131313----|

e|-----------------------      -----------------------------------|
B|-----------------------      -----------------------------------|
G|-----------------------      -----------------------------------|
D|--3-3-3-3-3-3-1-1-1-1-1  OR  --15-15-15-15-15-15-13-13-13-13-13-|
A|--3-3-3-3-3-3-1-1-1-1-1      --15-15-15-15-15-15-13-13-13-13-13-|
D|--3-3-3-3-3-3-1-1-1-1-1      --15-15-15-15-15-15-13-13-13-13-13-|


Verse/Pre-Chorus
e|----------------------------    --------------------    ------------|
B|----------------------------    --------------------    ------------|
G|----------------------------    --------------------    ------------|
D|--5-5-5-5-5-5-0-0-0-0-0-0--- x4 --5-5-5-5-0-0-0-0--- x4 -0-2-0-2-0--|
A|--5-5-5-5-5-5-0-0-0-0-0-0---    --5-5-5-5-0-0-0-0---    ------------|
D|--5-5-5-5-5-5-0-0-0-0-0-0---    --5-5-5-5-0-0-0-0---    ------------|
[P.M.]. . . . . . . . . . .


Chorus
e|-----------------------      ---------------------------------|
B|-----------------------      ---------------------------------|
G|-----------------------      ---------------------------------|
D|--55-0000-11-1111------  OR  --1717-12121212-1313-13131313----| x3
A|--55-0000-11-1111------      --1717-12121212-1313-13131313----|
D|--55-0000-11-1111------      --1717-12121212-1313-13131313----|

e|-----------------------      -----------------------------------|
B|-----------------------      -----------------------------------|
G|-----------------------      -----------------------------------|
D|--3-3-3-3-3-3-1-1-1-1-1  OR  --15-15-15-15-15-15-13-13-13-13-13-|
A|--3-3-3-3-3-3-1-1-1-1-1      --15-15-15-15-15-15-13-13-13-13-13-|
D|--3-3-3-3-3-3-1-1-1-1-1      --15-15-15-15-15-15-13-13-13-13-13-|


Verse/Pre-Chorus
e|----------------------------    --------------------    ------------|
B|----------------------------    --------------------    ------------|
G|----------------------------    --------------------    ------------|
D|--5-5-5-5-5-5-0-0-0-0-0-0--- x4 --5-5-5-5-0-0-0-0--- x4 -0-2-0-2-0--|
A|--5-5-5-5-5-5-0-0-0-0-0-0---    --5-5-5-5-0-0-0-0---    ------------|
D|--5-5-5-5-5-5-0-0-0-0-0-0---    --5-5-5-5-0-0-0-0---    ------------|
[P.M.]. . . . . . . . . . .


Chorus
e|-----------------------      ---------------------------------|
B|-----------------------      ---------------------------------|
G|-----------------------      ---------------------------------|
D|--55-0000-11-1111------  OR  --1717-12121212-1313-13131313----| x3
A|--55-0000-11-1111------      --1717-12121212-1313-13131313----|
D|--55-0000-11-1111------      --1717-12121212-1313-13131313----|

e|-----------------------      -----------------------------------|
B|-----------------------      -----------------------------------|
G|-----------------------      -----------------------------------|
D|--3-3-3-3-3-3-1-1-1-1-1  OR  --15-15-15-15-15-15-13-13-13-13-13-|
A|--3-3-3-3-3-3-1-1-1-1-1      --15-15-15-15-15-15-13-13-13-13-13-|
D|--3-3-3-3-3-3-1-1-1-1-1      --15-15-15-15-15-15-13-13-13-13-13-|


Breakdown
e|-----------------------------------    ---------------------------|
B|-----------------------------------    ---------------------------|
G|--8-7-5-33332355555--8-8-x-8-8-x---    ---------------------------|
D|--8-7-5-33332355555--8-8-x-8-8-x--- x4 --0-2-0-2-0-2-0-2-0-2-0----|
A|-----------------------------------    ---------------------------|
D|-----------------------------------    ---------------------------|


Chorus
e|-----------------------      ---------------------------------|
B|-----------------------      ---------------------------------|
G|-----------------------      ---------------------------------|
D|--55-0000-11-1111------  OR  --1717-12121212-1313-13131313----|
A|--55-0000-11-1111------      --1717-12121212-1313-13131313----|
D|--55-0000-11-1111------      --1717-12121212-1313-13131313----|

e|-----------------------      -----------------------------------|
B|-----------------------      -----------------------------------|
G|-----------------------      -----------------------------------|
D|--3-3-3-3-3-3-1-1-1-1-1  OR  --15-15-15-15-15-15-13-13-13-13-13-|
A|--3-3-3-3-3-3-1-1-1-1-1      --15-15-15-15-15-15-13-13-13-13-13-|
D|--3-3-3-3-3-3-1-1-1-1-1      --15-15-15-15-15-15-13-13-13-13-13-|


Outro
e|--------------------------------------------------------|
B|--------------------------------------------------------|
G|--------------------------------------------------------|
D|--5-5-5-5-5-5-0-0-0-0-0-0-5-5-5-5-5-5-0-----------------|
A|--5-5-5-5-5-5-0-0-0-0-0-0-5-5-5-5-5-5-0-(let ring)------|
D|--5-5-5-5-5-5-0-0-0-0-0-0-5-5-5-5-5-5-0-----------------|
[P.M.]. . . . . . . . . . . . . . . . .
-----------------------------------------------------------------------------
10. Ending In Tragedy (Acoustic)

Tuning: Standard (EADGBe)

x = Mute Note 

Intro
e|---------------------------------------------------------------------------|
B|---4------4------4------4------4------4------4------4------4------4--------|
G|---4------4------4------4------4------4------4------4------4------4--------|
D|-6---6--4---4--2---2--4---4--6---6--4---4--2---2--4---4--6---6--4---4------|
A|---------------------------------------------------------------------------|
E|---------------------------------------------------------------------------|

e|---------------------------------------------------------------------------|
B|---4------4------4------4------4------4------------------------------------|
G|---4------4------4------4------4--------4----------------------------------|
D|-2---2--4---4--6---6--4---4--2---2--4-----4--------------------------------|
A|---------------------------------------------------------------------------|
E|---------------------------------------------------------------------------|

Verse
e|---------------------------------------------------------------------------|
B|---4--4----4--4----4--4----4--4----------4--4----4--4----4-----------------|
G|---4--4----4--4----4--4----4--4----------4--4----4--4----4-------4---------|
D|-6-------4-------2-------4-------(x3)--6-------4-------2---2---4---4-------|
A|---------------------------------------------------------------------------|
E|---------------------------------------------------------------------------|


e|---------------------------------------------------------------------------|
B|---4------4------4------4------4------4------4------4----------------------|
G|---4------4------4------4------4------4------4--------4--------------------|
D|-6---6--4---4--2---2--4---4--6---6--4---4--2---2--4-----4------------------|
A|---------------------------------------------------------------------------|
E|---------------------------------------------------------------------------|
                                                             E5      F#5
e|---------------------------------------------------------------------------|
B|---4--4----4--4----4--4----4--4----------4--4----4--4----------------------|
G|---4--4----4--4----4--4----4--4----------4--4----4--4----------------------|
D|-6-------4-------2-------4-------(x3)--6-------4---------------------------|
A|---------------------------------------------------------------------------|
E|---------------------------------------------------------------------------|

Chorus
                                                       B5      F#5       E5 
B5       F#5          E5         B5  F#5               x--------x--------x--
Yeah         Now it's our time.                        x--------x--------x--
     B5    F#5           E5                            4--------x--------x--
And  yeah.      Now it's our time  and I'll            4--------4--------2--
B5              F#5                                    2--------4--------2--
see you on  the oth-er     side.                       x--------2--------0--

e|---------------------------------------------------------------------------|
B|---4------4------4------4------4------4------4------4----------------------|
G|---4------4------4------4------4------4------4--------4--------------------|
D|-6---6--4---4--2---2--4---4--6---6--4---4--2---2--4-----4------------------|
A|---------------------------------------------------------------------------|
E|---------------------------------------------------------------------------|

Verse
e|---------------------------------------------------------------------------|
B|---4--4----4--4----4--4----4--4----4--4----4--4----4--4----4---------------|
G|---4--4----4--4----4--4----4--4----4--4----4--4----4--4------4-------------|
D|-6-------4-------2-------4-------6-------4-------2-------4-----4-----------|
A|---------------------------------------------------------------------------|
E|---------------------------------------------------------------------------|
   
e|---------------------------------------------------------------------------|
B|---4--4----4--4----4--4----4--4----4--4----4--4----------------------------|
G|---4--4----4--4----4--4----4--4----4--4----4--4----4------4----------------|
D|-6-------4-------2-------4-------6-------4-------2---2--4---4--------------|
A|---------------------------------------------------------------------------|
E|---------------------------------------------------------------------------|

e|---------------------------------------------------------------------------|
B|---4------4------4------4------4------4------4------4----------------------|
G|---4------4------4------4------4------4------4------4----------------------|
D|-6---6--4---4--2---2--4---4--6---6--4---4--2---2--4---4--------------------|
A|---------------------------------------------------------------------------|
E|---------------------------------------------------------------------------|
                                                      E5            F#5
e|---------------------------------------------------------------------------|
B|---4--4----4--4----4--4----4--4----4--4----4--4----------------------------|
G|---4--4----4--4----4--4----4--4----4--4----4--4----------------------------|
D|-6-------4-------2-------4-------6-------4---------------------------------|
A|---------------------------------------------------------------------------|
E|---------------------------------------------------------------------------|

Chorus
                                                         G#m7 C#7sus2 E5vii G5
Bridge                                                   -x------4------x----x
                                                         -x------4------x----x
G#m7             C#7sus2          E5vii                  -4------4------9---12
Why      would      I       take  it too  far            -4------6------9---12
G#m7                C#7sus2                  E5vii       -x------4------7---10
with     not        think-ing a - bout the   end at all. -4------x------x----x
      G#m7                         C#7sus2
if a  for-tune could say what the  fu-ture will bring  then
E5vii                                        G#m7                 C#7sus2
I'm not convinced, it's end-ing in tra-e-dy  and most of all it's in my control
   E5vii              G5                 
to end                it                 

Chorus

B5       F#5            E5           B5  F#5
all            Now it's our time.              And
B5       F#5            E5(pm)             B5             F#5
yeah.          Now it's our time  and I'll see you on the oth-er side
B5       F#5            E5                     B5       F#5
               Now it's our time.              Yeah           Now it's
E5                   B5             F#5
our time   and i'll  see you on the other side.

Outro   
e|---------------------------------------------------------------------------|
B|---4------4------4------4------4-----4-------------------------------------|
G|---4------4------4------4--------4---4---x---------------------------------|
D|-6---6--4---4--2---2--4---4--6-----4---4-4---------------------------------|
A|-----------------------------------------2---------------------------------|
E|---------------------------------------------------------------------------|
-----------------------------------------------------------------------------
11. At Least I'm Known For Something

. = palm mute
~ = let ring

Intro pt 1
(guitar one)
E|----------------------------------------------------|
B|----------------------------------------------------|
G|----------------------------------------------------|
D|--2222-2-2-2222-2-----2222-2-2-2222-2---------------|
A|--2222-2-2-2222-2-----2222-2-2-2222-2---------------|
E|--0000-0-0-0000-0-----0000-0-0-0000-0---------------|
    ....     ....       ....     ....

(guitar two)
E|----------------------------------------------------|
B|----------------------------------------------------|
G|-----------------6/7/4----------------6/7/9---------|
D|-----------------x/x/x----------------x/x/x---------|
A|-----------------4/5/2----------------4/5/7---------|
E|----------------------------------------------------|


Intro pt 2
(guitar one)
E|----------------------------------------------------|
B|----------------------------------------------------|
G|----------------------------------------------------|
D|--2222-2-2-2222-2--------4-44-4--7~-----------------|
A|--2222-2-2-2222-2--------4-44-4--7~-----------------|
E|--0000-0-0-0000-0--------2-22-2--5~-----------------|
    ....     ....            .. .

(guitar two)
E|----------------------------------------------------|
B|----------------------------------------------------|
G|-----------------6/7/9------------------------------|
D|-----------------x/x/x---4-44-4--7~-----------------|
A|-----------------4/5/7---4-44-4--7~-----------------|
E|-------------------------2-22-2--5~-----------------|
                             .. .

Verse: Both Guitars x2
E|-----------------------------|----------------------|
B|-----------------------------|----------------------|
G|-----------------------------|----------------------|
D|--2222---2222---2222---2222--|--2~------------------|
A|--2222---2222---2222---2222--|--2~------------------|
E|--0000---0000---0000---0000--|--0~------------------|
    ....   ....   ....   ....

Pre-Chorus both guitars
E|----------------------------------------------------|
B|----------------------------------------------------|
G|----------------------------------------------------|
D|---2----6----7-----9----2----6-7~-------------------|
A|---2----6----7-----9----2----6-7~-------------------|
E|-000--444--555---777--000--444-5~-------------------| 
   ..   ..   ..    ..   ..   ..   


Chorus: x2
 (guitar one)
E|----------------------------------------------------|
B|----------------------------------------------------|
G|----------------------------------------------------|
D|--2222-2-2-2222-2-----2222-2-2-2222-2---------------|
A|--2222-2-2-2222-2-----2222-2-2-2222-2---------------|
E|--0000-0-0-0000-0-----0000-0-0-0000-0---------------|
    ....     ....       ....     ....

  (guitar two)
E|----------------------------------------------------|
B|----------------------------------------------------|
G|-----------------6/7/4----------------6/7/9---------|
D|-----------------x/x/x----------------x/x/x---------|
A|-----------------4/5/2----------------4/5/7---------|
E|----------------------------------------------------|

 (guitar one)
E|----------------------------------------------------|
B|----------------------------------------------------|
G|----------------------------------------------------|
D|--2222-2-2-2222-2--------4-44-4--7~-----------------|
A|--2222-2-2-2222-2--------4-44-4--7~-----------------|
E|--0000-0-0-0000-0--------2-22-2--5~-----------------|
    ....     ....            .. .

 (guitar two)
E|----------------------------------------------------|
B|----------------------------------------------------|
G|-----------------6/7/9------------------------------|
D|-----------------x/x/x---4-44-4--7~-----------------|
A|-----------------4/5/7---4-44-4--7~-----------------|
E|-------------------------2-22-2--5~-----------------|
                             .. .

Verse: Both Guitars x2
E|-----------------------------|----------------------|
B|-----------------------------|----------------------|
G|-----------------------------|----------------------|
D|--2222---2222---2222---2222--|--2~------------------|
A|--2222---2222---2222---2222--|--2~------------------|
E|--0000---0000---0000---0000--|--0~------------------|
    ....   ....   ....   ....

Pre-Chorus both guitars
E|----------------------------------------------------|
B|----------------------------------------------------|
G|----------------------------------------------------|
D|---2----6----7-----9----2----6-7~-------------------|
A|---2----6----7-----9----2----6-7~-------------------|
E|-000--444--555---777--000--444-5~-------------------| 
   ..   ..   ..    ..   ..   ..   



Chorus: x2
 (guitar one)
E|----------------------------------------------------|
B|----------------------------------------------------|
G|----------------------------------------------------|
D|--2222-2-2-2222-2-----2222-2-2-2222-2---------------|
A|--2222-2-2-2222-2-----2222-2-2-2222-2---------------|
E|--0000-0-0-0000-0-----0000-0-0-0000-0---------------|
    ....     ....       ....     ....

  (guitar two)
E|----------------------------------------------------|
B|----------------------------------------------------|
G|-----------------6/7/4----------------6/7/9---------|
D|-----------------x/x/x----------------x/x/x---------|
A|-----------------4/5/2----------------4/5/7---------|
E|----------------------------------------------------|

 (guitar one)
E|----------------------------------------------------|
B|----------------------------------------------------|
G|----------------------------------------------------|
D|--2222-2-2-2222-2--------4-44-4--7~-----------------|
A|--2222-2-2-2222-2--------4-44-4--7~-----------------|
E|--0000-0-0-0000-0--------2-22-2--5~-----------------|
    ....     ....            .. .

 (guitar two)
E|----------------------------------------------------|
B|----------------------------------------------------|
G|-----------------6/7/9------------------------------|
D|-----------------x/x/x---4-44-4--7~-----------------|
A|-----------------4/5/7---4-44-4--7~-----------------|
E|-------------------------2-22-2--5~-----------------|
                             .. .



interlude: just play this a lot you can work the rhythm out for
yourself there were 2 other chords in there I didn't know, sorry.
E|----------------------------------------------------|
B|----------------------------------------------------|
G|----------------------------------------------------|
D|-222222222------------------------------------------|
A|-222222222------------------------------------------|
E|-000000000------------------------------------------|
   .........


Pre-Chorus: (guitar one) (clean)
E|----------------------------------------------------|
B|----------------------------------------------------|
G|----------------------------------------------------|
D|-222--666--777---999--222--666-7~-------------------|
A|-222--666--777---999--222--666-7~-------------------|
E|-000--444--555---777--000--444-5~-------------------| 



Chorus: x2
 (guitar one)
E|----------------------------------------------------|
B|----------------------------------------------------|
G|----------------------------------------------------|
D|--2222-2-2-2222-2-----2222-2-2-2222-2---------------|
A|--2222-2-2-2222-2-----2222-2-2-2222-2---------------|
E|--0000-0-0-0000-0-----0000-0-0-0000-0---------------|
    ....     ....       ....     ....

  (guitar two)
E|----------------------------------------------------|
B|----------------------------------------------------|
G|-----------------6/7/4----------------6/7/9---------|
D|-----------------x/x/x----------------x/x/x---------|
A|-----------------4/5/2----------------4/5/7---------|
E|----------------------------------------------------|

 (guitar one)
E|----------------------------------------------------|
B|----------------------------------------------------|
G|----------------------------------------------------|
D|--2222-2-2-2222-2--------4-44-4--7~-----------------|
A|--2222-2-2-2222-2--------4-44-4--7~-----------------|
E|--0000-0-0-0000-0--------2-22-2--5~-----------------|
    ....     ....            .. .

 (guitar two)
E|----------------------------------------------------|
B|----------------------------------------------------|
G|-----------------6/7/9------------------------------|
D|-----------------x/x/x---4-44-4--77777--------------|
A|-----------------4/5/7---4-44-4--77777--------------|
E|-------------------------2-22-2--55555--------------|
                             .. .  .....

outro: x3 (both guitars)
E|----------------------------------------------------|
B|----------------------------------------------------|
G|----------------------------------------------------|
D|--22-2-2-22-----------------------------------------|
A|--22-2-2-22-----------------------------------------|
E|--00-0-0-00-----------------------------------------|


E|----------------------------------------------------|
B|----------------------------------------------------|
G|----------------------------------------------------|
D|--4~----7~------------------------------------------|
A|--4~----7~------------------------------------------|
E|--2~----5~------------------------------------------|
----------------------------------------------------------------------------
12. I'd Kill To Fall Asleep

STANDARD TUNING

INTRO
(clean)
e[---10------10-----]
b[------10~-----10~-]
g[------------------]
d[------------------]
a[------------------]
E[------------------]

guitar 1
e[--------------------------------]
b[--------------------------------]
g[--------------------------------]
d[--------------------------------]
a[---0-4-0---4-0---4-0---4-0---2~-]
E[-0-.---.-0---.-0---.-0---.-0----]
   .       .     .     .     .
guitar 2
e[--------------------------------]
b[-----2-----2-----2-----2-----0~-]
g[---2---2-----2-----2-----2------]
d[-2-.---.-2-----2-----2-----2----]
a[-.-------.-----.-----.-----.----]
E[--------------------------------]
(very weird. but i think its right.you just have to make sure you do it fast and get 
 in the palm mutes or else its not gonna work very well)

VERSE
guitars 1 and 2
(do this alot)
e[-----]
b[-----]
g[-----]
d[-----]
a[-777-]
E[-555-]   
   ...
guitar 3
(repeat intro of guitar 1 with NO distortion)
guitar 4
(repeat intro of guitar 2 with NO distortion)

VERSE ENDING OF GUITARS 1 AND 2
e[-------------]
b[-------------]
g[-------------]
d[-------------]
a[-77777-x-x-x-]
E[-55555-x-x-x-]

PRE-CHORUS
guitars 1 and 2
e[---------------------------------------------------]
b[---------------------------------------------------]
g[---------------------------------------------------]
d[--4-4-4-4-4-4-2-2-2--------4-4-4-4-4-4-------2-2-2-]
a[--2-2-2-2-2-2-0-0-0-5-5-5--2-2-2-2-2-2-5-5-5-0-0-0-]
E[--------------------3-3-3--------------3-3-3-------]
guitar 3
e[---------------------------------------------------]
b[---------------------------------------------------]
g[-111111111111-9-9-9-7-7-7-111111111111-7-7-7-9-9-9-]
d[--x-x-x-x-x-x-x-x-x-x-x-x--x-x-x-x-x-x-x-x-x-x-x-x-]
a[--9-9-9-9-9-9-7-7-7-5-5-5--9-9-9-9-9-9-5-5-5-7-7-7-]
E[---------------------------------------------------]
CHORUS
(just repeat the second part of the intro)

REPEAT VERSE

REPEAT PRE-CHORUS

REPEAT CHORUS/INTRO

BRIDGE
e[-------------------------------------]
b[-------------------------------------]
g[-------------------------------------]
d[-66666666-77777777-------------------]
a[-44444444-55555555-55555555-55555555-]
E[-........-........-33333333-33333333-]                     
                     ........ ........
e[-----]
b[-----]
g[-----]
d[-----]
a[-5~~-]
E[-3~~-]

REPEAT PRE-CHORUS

REPEAT CHORUS

ENDING
just repeat the intro with:
e[-----------------]
b[-----------------]
g[-----------------]
d[-----------------]
a[-777---777---777-]
E[-555---555---555-]
   ...   ...   ...
-----------------------------------------------------------------------------
13. No News Is Good News (Also on Vans Warped Tour 2004 Compilation: Stage 1)

Intro/verse                         End On
Guitar 1
e-------------------------|     e-------------| 
B--3-3-3--3-3-3-3-3-------|     B--3-3-3-3-3--|
G--2-2-2--0-0-0-0-0--19x--|     G--2-2-2-2-2--|
D--0-0-0--0-0-0-0-0-------|     D--0-0-0-0-0--|
A-------------------------|     A-------------|
E-------------------------|     E-------------|

Intro/verse
Guitar 2 ... guitar 1 plays 12x then come in.
e------------------------|         End On
B------------------------|     B-------------|
G--7-7-7-------------7x--|     G--7-7-7-7-7--|
D--7-7-7-5-5-5-5-5-------|     D--7-7-7-7-7--|

A--5-5-5-5-5-5-5-5-------|     A--5-5-5-5-5--|
E--------5-5-5-5-5-------|     E-------------|

Chorus
e--------------------------------------------------|
B--------------------------------------------------|
G------------5-5-5------------------------12-------|
D--5-5-5-5-5-5-5-5-7-7-7-9-9-9-9-9---2x---10--16x--|
A--5-5-5-5-5-7-7-7-7-7-7-9-9-9-9-9--------10-------|
E--5-5-5-5-5-------7-7-7-9-9-9-9-9--------10-------|

Interlude
Guitar 1
e------------------------------------------|
B------------------------------------------|
G------------------5-------2-------5-------|
D--2--16x--5--16x--5--16x--2--16x--5--16x--|
A--2-------5-------7-------0-------3-------|
E--2-------5-------------------------------|

Interlude
Guitar 2 
e-------------------------------------------------------------------|
B-------------------------------------------------------------------|
G--9-8x-11-4x-12-4x-7-8x-11-4x-12-4x-14-16x-9-8x-11-4x-12-8x-12-8x--|
D--x-----x-----x----x-----x-----x-----x-----x-----x-----x-----x-----|
A--7-----9----10----5-----9----10----12-----7-----9----10----10-----|
E-------------------------------------------------------------------|


Intro
Chorus
Verse
Chorus
Verse
Chorus
Interlude
Intro
Chorus
Intro
-----------------------------------------------------------------------------
14. Who Am I?

Tuning: Standard

 / = slide up
 \ = slide down
 h = hammer-on
 p = pull-off 
 ~ = vibrato
 + = harmonic
 x = Mute note
 
Intro 
e|---------------------------------------------------------------------------|
B|---------------------------------------------------------------------------|
G|--5-55555-55555-55------------------5-55555-55555-55-----------------------|
D|--x-xxxxx-xxxxx-xx-7-7777-5-5555-55-x-xxxxx-xxxxx-xx-2-2222-3-3333-33------|
A|--3-33333-33333-33-x-xxxx-x-xxxx-xx-3-33333-33333-33-x-xxxx-x-xxxx-xx------|
E|-------------------5-5555-3-3333-33------------------0-0000-1-1111-11------|
Verse 
e|---------------------------------------------------------------------------|
B|---------------------------------------------------------------------------|
G|--5-55555-55555-55------------------5-55555-55555-55-----------------------|
D|--5-55555-55555-55-7-7777-5-5555-55-5-55555-55555-55-2-2222-3-3333-33------|
A|--3-33333-33333-33-7-7777-5-5555-55-3-33333-33333-33-2-2222-3-3333-33------|
E|-------------------5-5555-3-3333-33------------------0-0000-1-1111-11------|
Pre-chorus
e|---------------------------------------------------------------------------|
B|---------------------------------------------------------------------------|
G|---------------------------5-----------------------------------------------|
D|--5--5--5-5--5--5-5--5--5--5-----------------------------------------------|
A|--5--5--5-5--5--5-5--5--5--3-----------------------------------------------|
E|--3--3--3-3--3--3-3--3--3--------------------------------------------------|
Chorus
e|---------------------------------------------------------------------------|
B|---------------------------------------------------------------------------|
G|--5-5-5-5-4-4-4-4----------------------------------------------------------|
D|--5-5-5-5-4-4-4-4-7-7-7-7-5-5-5-5-3-3-3-3-3-3-3-3-3-3-3-3-3-3-3-3----------|
A|--3-3-3-3-2-2-2-2-7-7-7-7-5-5-5-5-3-3-3-3-3-3-3-3-3-3-3-3-3-3-3-3----------|
E|------------------5-5-5-5-3-3-3-3-1-1-1-1-1-1-1-1-1-1-1-1-1-1-1-1----------|
Middle
e|-------------------------------------------------------------------------------|
B|-------------------------------------------------------------------------------|
G|------------------------------------------5------------------------------------|
D|--2----------------------3-3-3-3-3-3-3-x2-5----------------------3-3-3-3-3-3-3-|
A|--2----3-3-3-3-3-3-3-3-3-3-3-3-3-3-3-3----3----3-3-3-3-3-3-3-3-3-3-3-3-3-3-3-3-|
E|--0----1-1-1-1-1-1-1-1-1-1-1-1-1-1-1-1---------1-1-1-1-1-1-1-1-1-1-1-1-1-1-1-1-|
	 . . . . . . . . .                       . . . . . . . . . 
e|---------------------------------------------------------------------------|
B|---------------------------------------------------------------------------|
G|-------12-12-12-12-14-14-14-14-17-17-17-17-19-19-19-19---------------------|
D|--7-----x--x--x--x--x--x--x--x--x--x--x--x--x--x--x--x---------------------|
A|--7----10-10-10-10-12-12-12-12-15-15-15-15-17-17-17-17---------------------|
E|--5------------------------------------------------------------------------|
Solo
e|---------------------------20----------------------------------------------|
B|---------------------------------------------------------------------------|
G|--9-10-9----------12--10-9-----9--9-10-9------------9----------------------|
D|---------12-10-10------------------------12-10---10---10--10-10-12-10-10---|
A|-----------------------------------------------8---------------------------|
E|---------------------------------------------------------------------------|
							     .  .        .
e|-------------------------------------------------------12------------------|
B|----------------------------------------------------------13----15-13-12---|
G|--10-9----------12-10--9----12-12h14-12-10-9-----------------12------------|
D|-------10-12-10----------10------------------12-10-10----------------------|
A|---------------------------------------------------------------------------|
E|---------------------------------------------------------------------------|

e|---------------------------------------------------------------------------|
B|---------------------------------------------------------------------------|
G|--12---------10-9----------------------------------------------------------|
D|------------------10----10----7--------------------------------------------|
A|---------------------10----10----------------------------------------------|
E|---------------------------------------------------------------------------|
Not sure bout the last part of the chorus when jordan starts singin again but
thats pretty close....

-----------------------------------------------------------------------------
I. Hidden Track #1
 
sorry, this song is untabbed.

-----------------------------------------------------------------------------
II. Hidden Track #2

sorry, this song is untabbed.

-----------------------------------------------------------------------------

End Of "Catalyst"
Добавлено: 06.08.2013
Другие материалы по этой песне:
  • Аккорды и текст

Страница создана 06.08.2013
http://primanota.ru/new-found-glory/catalyst-chords.htm
Привет, Гость.
Предлагаем пройти революционный курс по гитаре.
Подарок от PrimaNota.Ru, забирай!