PrimaNota.ru - самый крупный в мире бесплатный архив песенных текстов, аккордов, табулатур и нот


New Found Glory - All Downhhill From Here - бас-таба, видео

Регистрация Запомнить меня
Войти через:  Facebook Google Twitter Vk Yandex Mail.ru

New Found Glory - All Downhhill From Here - бас-таба, видео

Печатать
Просмотров: 78
G |---------------------------------------------|
D |---------------------------------------------|
A |-----2h4-----------------2h4-----------------|    x2
E |---2-----2-2-2-9p7-7p5-2-----2-2-2-9p7-6h10--|

G |--------------------------------------|
D |--------------------------------------|
A |-2/---------4-4-4-4-2-2-2-2-4-4-4-4---|
E |----2-2-2-2---------------------------|

G |------------------------------------|
D |------------------------------------|
A |----------4-4-4-4-2-2-2-2-4-4-4-4---|   x2
E |--2-2-2-2---------------------------|

G |------------------------------------|
D |------------------------------------|
A |----------4-4-4-4-2-2-2-2-4---------|
E |--2-2-2-2---------------------------|

G |----------------------------------------------------------------|
D |----------------------------------------------------------------|
A |-----------------2-2-2-2-2-2-2-2-4-4-4-4-4-4-4-4-2-2-2-2-2-2-2-2| x3
E |-2-2-2-2-2-2-2-2------------------------------------------------|

G |---------------------------------------------------|
D |---------------------------------------------------|
A |-----------------2-2-2-2-2-2-2-2-4-4-4-4-4-4-4-4---| 
E |-2-2-2-2-2-2-2-2-----------------------------------|

G |----------------------------------------------|
D |----------------------------------------------|
A |-----2h4-----------------2h4------------------|    
E |---2-----2-2-2-9p7-7p5-2-----2-2-2-9p7-6h10---|

G |------------------------------------|
D |------------------------------------|
A |----------4-4-4-4-2-2-2-2-4-4-4-4---|   x7
E |--2-2-2-2---------------------------|

G |------------------------------------|
D |------------------------------------|
A |----------4-4-4-4-2-2-2-2-4---------|
E |--2-2-2-2---------------------------|

G |-----------------------------------------------------------------|
D |-----------------------------------------------------------------|
A |------------------2-2-2-2-2-2-2-2-4-4-4-4-4-4-4-4-2-2-2-2-2-2-2-2| x3
E |--2-2-2-2-2-2-2-2------------------------------------------------|

G |--------------------------------------------------|
D |--------------------------------------------------|
A |-----------------2-2-2-2-2-2-2-2-4-4-4-4-4-4-4-4--| 
E |-2-2-2-2-2-2-2-2----------------------------------|

G |------------------------------------------------------------------|
D |------------------------------------------------------------------|
A |---2h4-------4p2---2h4--------------------2h4------4p2---2h4------|    
E |-2-----2-2-2-----2-----2-2-2--9p7-6h10--2-----2-2-2----2-----2-2-2|

G |------------------------------------|
D |------------------------------------|
A |----------4-4-4-4-2-2-2-2-4-4-4-4---|   x3
E |--2-2-2-2---------------------------|

G |----------------------------------|
D |----------------------------------|
A |----------4-4-4-4-2-2-2-2-2-2-2-2-|
E |--2-2-2-2-------------------------|

G |----------------------------------------------------------------|
D |----------------------------------------------------------------|
A |-----------------2-2-2-2-2-2-2-2-4-4-4-4-4-4-4-4-2-2-2-2-2-2-2-2|    x3
E |-2-2-2-2-2-2-2-2------------------------------------------------|

G |-------------------------------------------------|
D |-------------------------------------------------|
A |-----------------2-2-2-2-2-2-2-2-4-4-4-4-4-4-4-4-|
E |-2-2-2-2-2-2-2-2---------------------------------|

G |----------------|
D |----------------|
A |-----2h4--------|
E |---2-----2-2-2--|

Добавлено: 03.10.2013
Другие материалы по этой песне:
  • Аккорды и текст

Страница создана 03.10.2013
http://primanota.ru/new-found-glory/all-downhhill-from-here-chords.htm
Привет, Гость.
Предлагаем пройти революционный курс по гитаре.
Подарок от PrimaNota.Ru, забирай!