PrimaNota.ru - самый крупный в мире бесплатный архив песенных текстов, аккордов, табулатур и нот


New Found Glory - Eysore - таба, видео

Регистрация Запомнить меня
Войти через:  Facebook Google Twitter Vk Yandex Mail.ru

New Found Glory - Eysore - таба, видео

Печатать
Просмотров: 182


INTRO
E--5----2-------------
A------------4----2---
D---------------------
G---------------------
VERSE
E-55555555-22222222------------------
A-------------------44444444-22222222
D------------------------------------
G------------------------------------

E-55555555-22222222------------------
A-------------------44444444-77777777
D------------------------------------
G------------------------------------

PRECHORUS
E-55555555---------222-222-----------
A---------55555555----0------55555555
D--------------------------0---------
G------------------------------------
                                 (x2)
CHORUS
E-55--------------
A---55--------5555
D-----44444444----
G-----------------
               (x2)   

INTRO
E--5----2-------------
A------------4----2---
D---------------------
G---------------------

VERSE
E-55555555-22222222------------------
A-------------------44444444-22222222
D------------------------------------
G------------------------------------

E-55555555-22222222------------------
A-------------------44444444-77777777
D------------------------------------
G------------------------------------

PRECHORUS
E-55555555---------222-222-----------
A---------55555555----0------55555555
D--------------------------0---------
G------------------------------------
                                 (x2)
CHORUS
E-55--------------
A---55--------5555
D-----44444444----
G-----------------
               (x2)
SOLO
E-5-2-5-2-0-
A--5-5-5----
D-----------
G-----------

CHORUS
E-55--------------
A---55--------5555
D-----44444444----
G-----------------
    (play until end)


Добавлено: 03.01.2014
Другие материалы по этой песне:
  • Аккорды и текст

Страница создана 03.01.2014
http://primanota.ru/new-found-glory/eysore-chords.htm
Привет, Гость.
Предлагаем пройти революционный курс по гитаре.
Подарок от PrimaNota.Ru, забирай!