PrimaNota.ru - самый крупный в мире бесплатный архив песенных текстов, аккордов, табулатур и нот


Nevergreen - Dont Stop - таба, видео

Регистрация Запомнить меня
Войти через:  Facebook Google Twitter Vk Yandex Mail.ru

Nevergreen - Dont Stop - таба, видео

Печатать
Просмотров: 153
Tabbed by:D Gizinski
Email:dantheman1175@aol.com
www.nevergreenrock.com
RTV Records
Tuning:EADGBe
guitar one (clean)
e|------------------------------------------------------------------------|
B|------------------------------------------------------------------------|
G|------------------------------------------------------------------------|
D|------------------------------------------------------------------------|
A|---10-12-13-12-10-8-7-7-8-10-8-7-5-3-10-12-13-12-10-8-7-7-8-10-8-7-5-3--|
E|------------------------------------------------------------------------|

Intro/postchorus
guitar one

e|--------------------------------------------------------------|
B|--------------------------------------------------------------|
G|--------------------------------------------------------------|
D|--------------------------------------------------------------|
A|-0-0-10-0-12-0-13-0-12-0-10-0-8-0-7-0-0-7-0-8-0-10-0-8-7-5-3--|
E|--------------------------------------------------------------|x8

e|---------------------------------------|
B|---------------------------------------|
G|----------------------5----------------|
D|---7---------3--------5-x16----5-------|
A|---7--x16----3-x16----3--------5-x-16--|
E|---5---------1-----------------3-------|
x4

Verse- guitar one
e|----------------------------------------------------|
B|----------------------------------------------------|
G|---14------------10-----------17--------12----------|
D|----xx---x16------x---x-16-----x--x16---x----x -16--|
A|---12------------8------------15-------10-----------|
E|----------------------------------------------------|
guitar two accents the outlined chords on the second time through.

Chorus


e|------------------------------------------------------------------------------|
B|------------------------------------------------------------------------------|
G|----------------------5-------------------------------------------------------|
D|---7--7-------3-3-------5-x16----5--------------------------------------------|
A|---7--7-------3-3----3--------5-x-16------------------------------------------|
E|---5--5-------1--1---------------3--------------------------------------------|

Play intro, then verse again.
Chorus again.

e|-----------------------------------------------|
B|-----------------------------------------------|
G|--14-12----12-14-14-15-14----------------------|
D|--------15------------------12-14-15-14-12-----|
A|--------------------------15---------------15--|
E|-----------------------------------------------|

I don't have the entire thing figured out yet, he mostly just noodles around with those notes.

Then repeat the chorus with the intro lead throughout it, and more noodling til the end.
Добавлено: 25.06.2012
Другие материалы по этой песне:
  • Аккорды и текст

Страница создана 25.06.2012
http://primanota.ru/nevergreen/dont-stop-chords.htm
Привет, Гость.
Предлагаем пройти революционный курс по гитаре.
Подарок от PrimaNota.Ru, забирай!