PrimaNota.ru - самый крупный в мире бесплатный архив песенных текстов, аккордов, табулатур и нот


Nevergreen - House Of Cards - таба, видео

Регистрация Запомнить меня
Войти через:  Facebook Google Twitter Vk Yandex Mail.ru

Nevergreen - House Of Cards - таба, видео

Печатать
Просмотров: 143
Tabbed by:D Gizinski
Email:dantheman1175@aol.com

Band site- www.nevergreenrock.com
Signed with RTV records

Tuning:EADGBe

Guitar One:Intro
e|--------------|
B|--------------|
G|--7xx10x9xx5--|
D|--xxxxxxxxxx--|
A|--5xx8xx7xx3--|
E|--------------|x8
Guitar Two: Intro (After guitar one goes through 4x

e|----------------------------------------------------------------------------------|
B|----------------------------------------------------------------------------------|
G|----------------------------------------------------------------------------------|
D|-7--10-9--5-----------------------------------------------------------------------|
A|-5--8--7--3-----------------------------------------------------------------------|
E|----------------------------------------------------------------------------------|
x4

Verse: Guitar One
e|-----------------------------------------------------------------------------------|
B|-----------------------------------------------------------------------------------|
G|--7~---------10-9-7~---------------------------------------------------------------|
D|-----------------------------------------------------------------------------------|
A|--5~----------8-7-5~-------------Pickslide-----------------------------------------|
E|-----------------------------------------------------------------------------------|

Chorus: Guitar One
(guitar two plays same thing but power chords
e|--------------------------------------------------------------------|
B|--------------------------------------------------------------------|
G|-7-7-7-7-7-7-7-7-1010101010101010109-9-9-9-9-9-9-9-5-5-5-5-5-5-5-5--|
D|--------------------------------------------------------------------|
A|-5-5-5-5-5-5-5-5-8-8-8-8-8-8-8-8-8-7-7-7-7-7-7-7-7-3-3-3-3-3-3-3-3--|
E|--------------------------------------------------------------------|

Post Chorus: Guitar two continues with chorus
e|-3-1-3-1---1-3---3-1-3-1-6-5-6-56-5-6--|
B|---------3-----------------------------|
G|---------------------------------------|
D|---------------------------------------|
A|---------------------------------------|
E|---------------------------------------|

There some high octaving at the end...but that is pretty much it.
Добавлено: 18.05.2012
Другие материалы по этой песне:
  • Аккорды и текст

Страница создана 18.05.2012
http://primanota.ru/nevergreen/house-of-cards-chords.htm
Привет, Гость.
Предлагаем пройти революционный курс по гитаре.
Подарок от PrimaNota.Ru, забирай!