PrimaNota.ru - самый крупный в мире бесплатный архив песенных текстов, аккордов, табулатур и нот


Немного Нервно - Что будет после меня - аккорды и текст, видео

Регистрация Запомнить меня
Войти через:  Facebook Google Twitter Vk Yandex Mail.ru

Немного Нервно - Что будет после меня - аккорды и текст, видео

Печатать
Просмотров: 169
Что будет после меня
Немного Нервно
Ставим каподастр на третий лад, 
там же аккорд C, и играем вступление. 
(такт - раз в три ноты, каждая вторая и третья шестерки на A - 
как бы фоновые)
E---------------------------------
B---------------------------------
G-----------------------3---------
D--------------------------------- х 4
A------6-6-6--6-6-6----6-6--5-5-6-
E---------------------------------

Теперь пришла пора перебора, 
которым будет играться остаток вступления и весь первый куплет. 
Удобно перебирать 4 аккорда и просто дергать нужные струны: 
C G Am F*
G - Чайфовый (330023)
F* - (012330)
Второй куплет боем. Третий снова перебором.

E----3-----6-------------------------------------------------
B-------4-----------6---------------4----------------4---3~4-
G-----------------------3----------------5-------------------
D---------------------------3---------------5----------------
A--------------------5--------------------------------3------
E----3-------------------------------3-----------------------

E----3-----6------------------------------------------
B-------4-----------6---------------4-------------3~4-
G-----------------------3----------------5------------
D---------------------------3-------------------------
A--------------------5--------------------------------
E----3-------------------------------3----------------

Под одеяло меня уложи
Теплой землей укрой у межи
В лоб поцелуй и веки смежи
Пока не сыграли отбой.
Сон колокольчика мне сотвори,
Маленьким мальчиком сердце озари,
Гречневым зернышком дай прорасти,
Прости - я улетаю домой.

C G
И что будет после меня
Am F*
Что будет после тебя
Что будет после меня

C G Am C*
Это письмо чужим и своим,
Это глаза уснувшей змеи,
Это Господь за миг до земли,
Когда я нажал спусковой.
Это внутри взорвется на три
Необреченное сердце зари,
Неприрученное пламя в груди,
Прости - я улетаю домой.

И что будет после меня
Что будет после тебя
Что будет после меня

Под одеяло меня уложи
Теплой землей укрой у межи
В лоб поцелуй и веки смежи
Пока не сыграли отбой.
Сон колокольчика мне сотвори,
Маленьким мальчиком сердце озари,
Гречневым зернышком, каплей тепла,
Не плачь - я улетаю домой.
Добавлено: 15.10.2015
Другие материалы по этой песне:
  • Аккорды и текст

Страница создана 15.10.2015
http://primanota.ru/nemnogo-nervno/chto-budet-posle-menya-chords.htm
Привет, Гость.
Предлагаем пройти революционный курс по гитаре.
Подарок от PrimaNota.Ru, забирай!