PrimaNota.ru - самый крупный в мире бесплатный архив песенных текстов, аккордов, табулатур и нот


Немного Нервно - Яблочный остров - аккорды и текст, видео

Регистрация Запомнить меня
Войти через:  Facebook Google Twitter Vk Yandex Mail.ru

Немного Нервно - Яблочный остров - аккорды и текст, видео

Печатать
Просмотров: 247
Яблочный остров
Немного Нервно
Проигрыш и куплеты:
E---5-------7---------0-------0------
B-----0--------0--------0--------0---
G-------0--------0--------0--------0-
D------------------------------------ 2 раза
A------------------------------------
E---0-------0---------0-------0------

E--8-------7-------5--------5-----------0-------------0------0--------0------
B----0--------0-------0--------0-----------0-------------0------0--------0---
G------0--------0-------0--------0-----------0-------------0------0--------0-
D----------------------------------------------------------------------------
A----------------------------------------------------------------------------
E--0-------0-------0--------0-----------0-------------0-------0-------0------

Нырнувший в зеркало
И вышедший из воды,
Ушедший старым - 
Вернувшийся молодым.
На острове яблок
Полупрозрачны арфы - 
Полупрозрачны руки,
Срывающие плоды.

Припев: (перебор (1+бас)-2-3)
C Am C
Воля твоя
Am Em
Крепче каменных стен - 
C Am C Am Em
Я вернусь к тебе в пору цветения,
Яблочный остров. 
Воля твоя
Крепче каменных стен - 
Я вернусь к тебе в пору цветения,
Яблочный остров. 

Проигрыш: C C* C C* G* G* G G (2 раза)
          C* C* C C Em Em Em Em (2 раза)

Куплет:
Тонкие белые женщины
Мне сшили рубаху - 
В предчувствии розмарина,
Без надрезов и швов.
Приготовленья начаты
И я уже вижу мачты
Тех, что плывут на запад.
Я так давно слышу зов. 

Припев:
Вера моя ...

Проигрыш: (соло флейты)
C C* C C* G* G* G G (2 раза)
C* C* C C Em Em Em Em (2 раза)
Am Am* Am** Am
Em Em* Em** Em
Am Am* Am** Am
Em Em* Em** Em
D D D D
A A A A
D D D D
A A A A
(дальше на первой струне проигрыш, пишу номера ладов, 
повтор 4 раза: 2-3-5-5-3-2)
Добавлено: 15.10.2015
Другие материалы по этой песне:
  • Аккорды и текст

Страница создана 15.10.2015
http://primanota.ru/nemnogo-nervno/yablochnyi-ostrov-chords.htm
Привет, Гость.
Предлагаем пройти революционный курс по гитаре.
Подарок от PrimaNota.Ru, забирай!