PrimaNota.ru - самый крупный в мире бесплатный архив песенных текстов, аккордов, табулатур и нот


Neil Diamond - Brooklyn Roads - аккорды и текст, видео

Регистрация Запомнить меня
Войти через:  Facebook Google Twitter Vk Yandex Mail.ru

Neil Diamond - Brooklyn Roads - аккорды и текст, видео

Печатать
Просмотров: 170
Уроки эстрадного вокала в Санкт-Петербурге
Brooklyn Roads
Neil Diamond
This was Neil's first record on UNI. Although it's considered one of his 
classics,
the record didn't even manage to crack the top 40. I don't think we were 
quite ready for this side of Neil Diamond just yet.

                                   "Brooklyn Roads"
                                    (Neil Diamond)
                                     Neil Diamond
                             Velvet Gloves and Spit, 1968

Use bar chords.

Intro:

        G# A7             G# A7             G#
        /  / / / /  / / / /  / / / /  / / / /

Verses 1 & 2:

        A7             G# A7             G# A7             C# D7       G
        / / / /  / / / /  / / / /  / / / /  / / / /  / / / /  / / / /  / / / /

        D7             G# A7             G# A7             G# A7             C#
        / / / /  / / / /  / / / /  / / / /  / / / /  / / / /  / / / /  / / / /

        D7       G        D7             G# A7                D7       Gm
        / / / /  / / / /  / / / /  / / / /  / / / /  / / / /  / / / /  / / / /

        C7       F        F7M      F7       F6       C          [N.C.]
        / / / /  / / / /  / / / /  / / / /  / / / /  / / / /  / / / /

        horns arr. for guitar:

        D         G   D7   D G       G#
        v   v   v   v    v   v   v   v
        ----------------|----------------|
        ----------0---1-|----0-----------|
        --------2-0---2-|--2-0-----------|
        --------4-0---0-|--4-0-----------|
        --------5-------|--5-------------|
        ----------------|----------------|

[Verse 2]

Instrumental break:

        D7       Gm       C7       F        Bb7M     C                 D
        / / / /  / / / /  / / / /  / / / /  / / / /  / / / /  / / / /  / / / /

        D7    G#
        / / / /

Verse 3 [partial]:

        A7             G# A7             G# A7             C# D7       G
        / / / /  / / / /  / / / /  / / / /  / / / /  / / / /  / / / /  / / / /

        D7             G# A7                D7       Gm       C7       F
        / / / /  / / / /  / / / /  / / / /  / / / /  / / / /  / / / /  / / / /

        F7M      F7       F6       C          [N.C.]
        / / / /  / / / /  / / / /  / / / /  / / / /

        horns arr. for guitar:

        D         G   D7   D G
        v   v   v   v    v   v   v   v
        ----------------|----------------|
        ----------0---1-|----0-----------|
        --------2-0---2-|--2-0-----------|
        --------4-0---0-|--4-0-----------|
        --------5-------|--5-------------|
        ----------------|----------------|

Coda:

        horns arr. for guitar:

        D         G   D7   D G
        v   v   v   v    v   v   v   v
        ----------------|----------------|
        ----------0---1-|----0-----------|
        --------2-0---2-|--2-0-----------|
        --------4-0---0-|--4-0-----------|
        --------5-------|--5-------------|
        ----------------|----------------|
                     [rit.]

        end cold on D

Question? Comments? E-mail Alex at springalo430@hotmail.com
     
Добавлено: 08.11.2013
Другие материалы по этой песне:
  • Аккорды и текст

Страница создана 29.06.2012
http://primanota.ru/neil-diamond/brooklyn-roads-chords.htm
Привет, Гость.
Предлагаем пройти революционный курс по гитаре.
Подарок от PrimaNota.Ru, забирай!