PrimaNota.ru - самый крупный в мире бесплатный архив песенных текстов, аккордов, табулатур и нот


Neil Diamond - Walk on Water - аккорды и текст, видео

Регистрация Запомнить меня
Войти через:  Facebook Google Twitter Vk Yandex Mail.ru

Neil Diamond - Walk on Water - аккорды и текст, видео

Печатать
Просмотров: 123
Уроки эстрадного вокала в Санкт-Петербурге
Walk on Water
Neil Diamond
Walk on water - Neil Diamond  - On the Moods
----------------------------

Intro: C F G F  x3
             C F                G F     
Walk on water, ain't it like her,
                C F G F
She leads the children,
Csus C           F C            C/D C           Bb C
Ain't it right, ain't it right, ain't it right!
             C F                   G F  
And ain't it wond'rous, the way she does it,
                C F G F
Gives love and loves it,
Csus C           F C            C/D C           Bb C
Ain't it right, ain't it right, ain't it right!

C F C

Solo: (play during next verses)

e --12--/-12-12-----8--8--8--8-/--------8--8--/--8--8--/--8--8--8--8--8------|
F --13--/-13-13-----8--8--8--8-/--------8--8--/--8--8--/--8--8--8--8--8------|
D --12--/-12-12-----9--9--9--9-/--------10-10-/--10-10-/-10-10-10-10-10------|
B -----------------10-10-10-10-/--------10-10-/--10-10-/-10-10-10-10-10------|
G ---------------------------------------------------------------------------|
E ---------------------------------------------------------------------------|

Light de light, we got mornin', mornin' makes another day,

Glory sight, got de dawnin',

Lordy, light the night away!




Light de light, we got mornin', mornin' makes another day,

Glory sight, got de dawnin'

Lordy, light the night away!




Light de light, we got mornin', mornin' makes another day,

Glory sight, got de dawnin'

Lordy, light the night away!


        end solo.

             C F                G F
She walks on water, ain't it like her,
                C F G F
She leads the children,
Csus C           F C            C/D C           Bb C
Ain't it right, ain't it right, ain't it right!

-----------------------------------
Raúl Galván Ábalos
Добавлено: 17.07.2015
Другие материалы по этой песне:
  • Аккорды и текст

Страница создана 23.02.2012
http://primanota.ru/neil-diamond/walk-on-water-chords.htm
Привет, Гость.
Предлагаем пройти революционный курс по гитаре.
Подарок от PrimaNota.Ru, забирай!