PrimaNota.ru - самый крупный в мире бесплатный архив песенных текстов, аккордов, табулатур и нот


НедРа - На кончике ножа - аккорды и текст, видео

Регистрация Запомнить меня
Войти через:  Facebook Google Twitter Vk Yandex Mail.ru

НедРа - На кончике ножа - аккорды и текст, видео

Печатать
Просмотров: 117
На кончике ножа
НедРа
Вступление:  
2 раза играть это: 
1 --------------|--------------|--------------|----------------| 
2 --------------|--------------|--------------|------2------0--| 
3 -----1-----1--|-----1-----1--|-----1-----1--|----------------| 
4 ---2-----2----|---2-----2----|---2-----2----|---2------2-----| 
5 -4-----4------|-2-----2------|-0-----0------|-0------0-------| 
6 --------------|--------------|--------------|----------------| 
 
потом: 
1 ----------|---2---0--|----------|----------|----------|---2---0-- 
2 ----------|---0---0--|----------|----------|----------|---0---0-- 
3 ----2---2-|----------|---6---6--|---6---4--|---2---2--|---------- 
4 ---2---2--|--2---2---|--6---6---|--6---6---|--2---2---|--2---2--- 
5 --0---0---|-0---0----|-4---4----|-4---4----|-0---0----|-0---0---- 
6 ----------|----------|----------|----------|----------|---------- 
дальше так и так же играется первый куплет (где такие аккорды C#m | A+7-5): 
1 -------------------|---------------------| 
2 --------5-------5--|--------4--------4--| 
3 --------6-------6--|--------6--------6--| 
4 -----6-------6-----|-----6--------6-----| 
5 --4-------4--------|--------------------| 
6 -------------------|--5--------5--------| 
 
C#m  A+7-5  C#m  A+7-5
Я принёс на кончике ножа 
C#m  A+7-5  C#m  A+7-5
То, что даже не произнести 
C#m  A+7-5  C#m  A+7-5
Половинку неба от стрижа 
C#m  A+7-5  C#m  A+7-5
Половинку моря отгрести 
A9  A9/6  C#m  A+7-5
Если хочешь, я махну крылом 
A9  A9/6  C#m  A+7-5
Если хочешь, я уйду на дно 
A9  A9/6  C#m  A+7-5
Я передвигаюсь под углом 
A+7 *  A *  A+7 *  A *  A+7 *  A6-5 
Я с планетой этой заодно, заодно 
 
Я принёс такую тишину 
Если крикнешь - дрогнет континент 
Если слышишь, как во сне дышу 
Значит, знаешь, как дрожит цемент 
Я принёс такую пустоту 
Не заполнишь, не заполонишь 
A9 
Я несу сплошную наготу  
A+7 *  A *  A+7 *  A6-5 
Всего лишь лишь, всего лишь лишь 
 
Припев: 
C#m  B6sus  A6 
И в заливе волны бьются, 
B6sus  C#m  
Вонзаются в причал 
B6sus  A6  B6sus 
Я такой же, я хочу кричать 
C#m  B6sus  A6 
Мы на оловянном блюдце  
B6sus  C#m   
Ждём первого луча 
A6-5 *  A+7 G# 
Первого луча 
 
C#m | A+7-5 | C#m | A+7-5 | B6sus | A6 | B6sus | A6 
 
Я принёс такую высоту 
Потому и ухожу на дно 
И прилив прикроет наготу 
Молодых спокойных валунов 
Если хочешь, будет Эверест 
Или у подножия финал 
Всё во мне как в 41-м Брест 
Я жду сигнал, я жду сигнал 
 
Припев: 
И в заливе волны бьются 
Вонзаются в причал 
Я такой же, я хочу кричать 
Мы на оловянном блюдце  
Ждём первого луча 
A6-5 *  A+7  A+7/9 
Первого луча 
 
С#m7 *  C#m7/B  A+7/9  A+7 
За петлицу я тебя тяну 
С#m7*  C#m7/B  A+7/9  A+7
За ресницу из окна луча 
С#m7 *  C#m7/B  A+7/9  A+7 
Я не знаю эту глубину 
С#m7 *  C#m7/B  A+7/9  A+7 
Но я знаю, где тебя включать 
A9  A9/6  C#m  A+7-5
Я включаю дальний по пути 
A9  A9/6  C#m  A+7-5
Если рядом ближний заодно 
A9  E 
Снова ветер к вечеру утих 
A+7 *  A *  A+7*  A6-5 
Идём на дно 
 
Припев: 
Но в заливе волны бьются  
Вонзаются в причал 
Я такой же, я хочу кричать 
Мир на оловянном блюдце  
Ждёт первого луча 
Первого луча 
 
C#m | A+7-5 | C#m | A+7-5 | B6sus | A6 | B6sus | A6 }x2 A+7 * A9 * 
 
Я принёс на кончике ножа 
То, что даже не произнести 
Половинку неба от стрижа 
Половинку моря отгрести 
Половинку неба от стрижа 
Половинку моря отгрести 
Добавлено: 26.05.2016
Другие материалы по этой песне:
  • Аккорды и текст

Страница создана 26.05.2016
http://primanota.ru/nedra/na-konchike-nozha-chords.htm
Привет, Гость.
Предлагаем пройти революционный курс по гитаре.
Подарок от PrimaNota.Ru, забирай!