PrimaNota.ru - самый крупный в мире бесплатный архив песенных текстов, аккордов, табулатур и нот


Ne-yo - Make It Work - аккорды и текст, таба, видео

Регистрация Запомнить меня
Войти через:  Facebook Google Twitter Vk Yandex Mail.ru

Ne-yo - Make It Work - аккорды и текст, таба, видео

Печатать
Просмотров: 321
Make It Work
Ne-yo
-------------------------------------------------------------------------------
                              MAKE IT WORK - Ne-Yo
-------------------------------------------------------------------------------
First Submitted: July 30th 2010

Tabbed by: Wayne S
Tuning: Standard EADGBE

Capo: 3

Chords:

F: 133211
G: 320033 or 355433
Em: 022000
Am: 002210 (only used in Intro)
(x) = mute/pause

Chords (for no capo):

Ab: 466544
Bb: 688766
Gm: 355333

Don't have the intro for no capo just yet but I will add it in if there are enough 
requests for it.

And I can't believe this song doesn't have any chords posted for it or any 
extensive, more detailed listing!

Please leave any comments/ratings/corrections/suggestions.

[Fill]:

E|-------------|
B|---0h1-0-----|
G|-2-------2-0-|
D|-------------|
A|-------------|
E|-------------|

The fill can go after every bar (cycle) of F, G, Em, F. Just tried it and it sounds pretty cool!

[Intro]:

              F          G     G       Em    Em      F     F G Am F F

e|--------------(x)-0------(x)-----------(x)-------------------0-----(x)-----|
B|--0h1-0-------(x)--------(x)-------0---(x)---------------1-3-1-1---(x)-----|
G|2-------2-0-2-(x)---2--4-(x)-4---2---0-(x)-0---0-2-2-----2-4-2-2-2-(x)-----|
D|------------3-(x)------5-(x)-5-0-----2-(x)-2-2-----3-----3-5-2-3-3-(x)-----|
A|------------3-(x)------5-(x)-5-------2-(x)-2-------3-----3-5---3-3-(x)-----|
E|------------1-(x)------3-(x)-3-------0-(x)-0-------1-------------1-(x)-----|

  Am G G    G       Em    Em      F

e|0-3---(x)-----------(x)-----------(x)--------------------------------------|
B|1-3---(x)-------0---(x)-----------(x)---0h1-0------------------------------|
G|2-4-4-(x)-4---2---0-(x)-0---0-2-2-(x)-2-------2-0--------------------------|
D|2-5-5-(x)-5-0-----2-(x)-2-2-----3-(x)--------------------------------------|
A|----5-(x)-5-------2-(x)-2-------3-(x)--------------------------------------|
E|----3-(x)-3-------0-(x)-0-------1-(x)--------------------------------------|

[After listening to the song a little more carefully, sounds like you could almost 
play the intro throughout the whole song and it would still sound right. Test it 
out!]

[Verse 1]:

F                 G
You understand me at least you say you do
Em                       F
Lately that's enough for me
F                      G
Looking for perfect surrounded by artificial
           Em                      F
You're the closest thing to real I see
                        F                  G
Sure everyone has their problems, that's a given
              Em             F
Yours are the easiest to tolerate
                           F                  G
This wasn't what we we was wanting, how we're living
                    Em                         F
But let's take this good enough and turn it to great, baby understand

[Chorus]:

F                           G
This can only be as good as we both make it
Em                        F
Yes, sometimes it's gonna hurt
                           (F)
(Yes, sometimes it's gonna hurt)
F                        G
We can be as happy as we want to be, girl
Em                   F
But we gotta make it work

                 F                 G
We gotta make it work, ay oh ay oh oh         x2
                 Em                F
We gotta make it work, ay oh ay oh oh

[Verse 2]:

F                    G
Sometimes I love you more than you'll ever know
Em                        F
Other times you get on my nerves
     F                    G
Hey, that's just reality, no, it can't always be
Em                         F
Kisses, hugs and beautiful words
                    F                     G
You was looking for your prince, what you found
     Em                   F
Is a pauper with potential
                         F                G
And no, I'm nowhere near perfect but I'm around
               Em                   F
Girl, time and patience is essential, baby realize


[Repeat Chorus]


F                G
  Thick and thin
           Em                  F
The bad outweighs the good sometimes
             F                                 G
That doesn't mean we're supposed to give it up
                Em                  F
My problems are yours and yours are mine


[Repeat Chorus]
Добавлено: 31.03.2012
Другие материалы по этой песне:
  • Аккорды и текст

Страница создана 18.03.2012
http://primanota.ru/ne-yo/make-it-work-chords.htm
Привет, Гость.
Предлагаем пройти революционный курс по гитаре.
Подарок от PrimaNota.Ru, забирай!