PrimaNota.ru - самый крупный в мире бесплатный архив песенных текстов, аккордов, табулатур и нот


Nautilus Pompilius, Вячеслав Бутусов - Вертолет - аккорды и текст, видео

Регистрация Запомнить меня
Войти через:  Facebook Google Twitter Vk Yandex Mail.ru

Nautilus Pompilius, Вячеслав Бутусов - Вертолет - аккорды и текст, видео

Печатать
Просмотров: 574
Вертолет
Nautilus Pompilius, Вячеслав Бутусов
   D             A D       C#7       F#m
1:|5424242-4242020-2424542-4+----------|
2:-------------2+9-6-3-0---|
3:-------------4+-------1--|
4:-------------3+--------34|

1:------------------------------------------------------------|
2:|-----02320---02320---02320---02320----020------030-------0-------------|
3:|---22-----211-----122-----211-----1002---20---2---2----02-20-----------|    A
4:---------------------------------44------433-----3-22200----|
5:|9-----------------------------------------------------------------4422|
6:------------------------------------------------------------|

1:54-----------54-------------------32--------------10|
2:|-----023-------------023-------------------02------------------|          B+A
3:----------------------------2------------------02---|
4:----------------------------------------------3-----|

Hm7            E
Я лечу над землей,
Hm7        E
Верчу головой,                       A
A7             D
Я теперь вертолет.
G7           A
Выше тучи полет.

1:|--7-10--7-10--7---7-10-7-10-7---7-10--7-10--7---7-10-7-10-7---5-9--5-9-5
2:|10----10----10---9----9----9--10----10----10---9----9----9---8----8---8-...

1:|-5-10-5-10-5---3-7-3-7-3-----------|
2:|7----7----7---6---6---6------------|        C
3:---------------999776644|
           
Вижу сверху свой дом,
Всем привет, всем подъем.           A+C
В доме кто-то не спит,
В доме кто-то поет:

C#
"Пой ласточка, пой.
F#m
Пой, милая.
C#
Пой, не умолкай,
F#m
Красивая.                    D
C#
Пой, ласточка, пой.
F#m
Пой, милая,
E     E7     Ab
Пой, не умолкай"
        
5:|4-----(4)-------4--(4)-----4-----(4)---------|      D
6:|-------2------------2-------------2----0----4|

2:|10-9-7-9-7-5-3--9-7-5-7-5-3-2--7-5-3-9-10-9-3--6-3-0-6-3-0-2|

Я лечу над землей.
Возвращаюсь домой.
Ты мне машешь крылом,                    A
"Я - центральный, прием".

Вижу сверху наш дом,
Вижу свет за окном,
Мы сидим за столом,            C+A
Чай пьем и поем:

"Спи, звездочка, спи.
Спи, ясная.Спи, не угасай,
Прекрасная.Спи, звездочка спи.      D
Спи, ясная,Спи, не угасай"

B+A
C
2:|10-9-7-9-7-5-3--9-7-5-7-5-3-2--7-5-3-9-10-3--9-6-3-9-6-3-7|
Добавлено: 22.04.2012
http://primanota.ru/nautilus-pompilius/vertolet-chords.htm
Привет, Гость.
Предлагаем пройти революционный курс по гитаре.
Подарок от PrimaNota.Ru, забирай!