PrimaNota.ru - самый крупный в мире бесплатный архив песенных текстов, аккордов, табулатур и нот


Nautilus Pompilius, Вячеслав Бутусов - Прогулки по воде (2, 3 и 4 варианты) - аккорды и текст, видео

Регистрация Запомнить меня
Войти через:  Facebook Google Twitter Vk Yandex Mail.ru

Nautilus Pompilius, Вячеслав Бутусов - Прогулки по воде (2, 3 и 4 варианты) - аккорды и текст, видео

Печатать
Просмотров: 429
Прогулки по воде (2, 3 и 4 варианты)
Nautilus Pompilius, Вячеслав Бутусов
Am
С причала рыбачил апостол Андрей,
      E7
А спаситель ходил по воде.
      Dm
И Андрей доставал из воды пескарей,
      Am
А спаситель - погибших людей.
И Андрей закричал - Я покину причал,
Если ты мне откроешь секрет.
А спаситель ответил - Спокойно, Андрей,
Никакого секрета здесь нет.
 
     Am
    Видишь там на горе   возвышается крест.
         E7)
    Под ним десяток солдат. Повиси-ка на нем,
    А когда надоест, возвращайся назад,
       E7)
    Гулять по воде, гулять по воде,
       G
    Гулять по воде со мной.

Но, учитель, на касках блистают рога,
Черный ворон кружит над крестом.
Объясни мне сейчас, пожалей дурака,
А распятье оставь на потом.
Онемел спаситель и топнул в сердцах
По водной глади ногой:
Ты и верно дурак, и Андрей, в слезах,
Побрел с пескарями домой.

    Видишь там на горе возвышается крест.
    Под ним десяток солдат. Повиси-ка на нем,
    А когда надоест, возвращайся назад,
    Гулять по воде, гулять по воде,
    Гулять по воде со мной.

    Видишь там на горе возвышается крест.
    Под ним десяток солдат. Повиси-ка на нем,
    А когда надоест, возвращайся назад,
    Гулять по воде, гулять по воде,
    Гулять по воде со мной.

      Пр.
Соло:
1|-7-7-7-------5-5-5-------5-5-5-------3-3-3--------------|  2
2|-------8-8-8-------7-7-7-------5-5-5-------5-5-5--------|

1|---7-10-8-7----8-8-7------7---7---5---5----8----8----11----11|
2|------------10-------10-8---8---7---7---10---10---10----10---|

1|-7-10-8-7----8-8-7--------3---3---7---7---2---2---5---5---8--|
2|----------10-------10-8-5---5---8---8---4---4---4---4---7---7|

    Апостол Андрей

VL> E|-7-7-8-10-10-8p7-+--+--+---|-8-8-7-+--+--+--+--+--+---|
VL> B|-8-+--+--+--+--+-10-+--+---|-+--+--10-+--+--+--+--+---|
VL> G|-7-+--+--+--+--+--+--+--+--|-+--+--+--9-+--+--+--+--+-|
VL> D|-9-+--+--+--+--+--+--+--+--|-+--+--+--+--+--+--+--+---|
VL> A|-+--+--+--+--+--+--+--+--+-|-+--+--+--+--+--+--+--+---|
VL> E|-+--+--+--+--+--+--+--+--+-|-+--+--+--+--+--+--+--+---|


E|-7-7-7--------7-7-7---7----|-5-5-5-------5-5-5---5-----------|
B|-8-8-8-8-8-8--8-8-8-8---8--|-7-7-7-7-7-7-7-7-7-7---7---------|
G|-------0-0-0--------0------|-------8-8-8-------8-------------|
D|---------------------------|---------------------------------|
A|---------------------------|---------------------------------|
E|-0------------0------------|-7-------------------------------|
                             (р)
E|-5-5-5--------5-5-5---5----|-3-3-3-------3---------------|
B|-5-5-5-5-5-5--5-5-5-5---5--|-0-0-0-0-0-0-----0----0----------|
G|-------5-5-5--------5------|-------0-0-0---0--------0--------|
D|---------------------------|---------------------------------|
A|-0------------0------------|---------------------------------|
E|------(0)----------(0)-----|-0-----------0-------------------|

повторить 2 раза
                                                  или 0
E|----7-7-7-10-10-10-8p7-5------|----8-8-7-5-3-------------|
B|---8-----------------------7--|---5------------0----0--------|
G|--7----------------------7----|--5-----------0--------0------|
D|-0---------------------0------|------------------------------|
A|------------------------------|-0----------------------------|
E|------------------------------|------------0-----------------|

повторить 3 раза

E|-3-----3-----7-----7-------|-5-----8---8-8-----7------|
B|-----1---1-------8---8-----|-----5-----------7---7----|
G|---0-------0---7-------7---|---5-----5-----8-------8--|
D|-------------0-------------|--------------------------|
A|-3-------------------------|-0------------------------|
E|---------------------------|-------------7-----------7|

 Прогулки по воде( С причала рыбачил апостол Андрей...)
E|-7-7-7-------5-5-5-------5-5-5-------3-3-3-------|  2
B|-------8-8-8-------7-7-7-------5-5-5-------5-5-5-|

E|7-7-10-10-8-7----8-8-7---------7---7---5---5----8----|
B|--------------10-------10-8--8---8---7---7---10---10-|

E|-8----11----11-|
B|---10----10----|


E|7-7-10-10-8-7-----8-8-7--------3---3---7---7---2---2-|
B|--------------10--------10-8-5---5---8---8---4---4---|

E|---5---5---8---|
B|-4---4---7---7-|

Прогулки по воде II.

E|-7-7-7--------7-7-7---7----|-5-5-5-------5-5-5---5----|
B|-8-----8-8-8--------8---8--|-7-----7-7-7-------7---7--|
G|-9-------------------------|-7------------------------|
D|-9-------------------------|-7------------------------|
A|---------------------------|--------------------------|
E|---------------------------|--------------------------|

E|-5-5-5--------5-5-5---5----|-3-3-3-3-2-0-3------------|
B|-5-----5-5-5--------5---5--|-5------------------------|
G|-5-------------------------|-4------------------------|
D|-7-------------------------|-5------------------------|
A|---------------------------|--------------------------|
E|---------------------------|--------------------------|

повторить 2 раза

E|-7-7-8-10-10-8p7-----------|-8-8-7--------------------|
B|-8---------------10--------|-------10-----------------|
G|-7-------------------------|----------9---------------|
D|-9-------------------------|--------------------------|
A|---------------------------|--------------------------|
E|---------------------------|--------------------------|

E|---7---7---5---5-----------|---5---5-7-8-7-5----------|
B|-8---8---7---7-------------|-5---5--------------------|
G|---------------------------|--------------------------|
D|---------------------------|--------------------------|
A|---------------------------|--------------------------|
E|---------------------------|--------------------------|

E|-7-7-8-10-10-8p7-----------|-8-8-7--------------------|
B|-8---------------10--------|-------10-----------------|
G|-7-------------------------|----------9---------------|
D|-9-------------------------|--------------------------|
A|---------------------------|--------------------------|
E|---------------------------|--------------------------|

E|------------------------|---5---5-7-8-7-8-11-10-11-14-|
B|---8---8---8---8--------|-5---5-----------------------|
G|-9---9---7---7----------|-----------------------------|
D|------------------------|-----------------------------|
A|------------------------|-----------------------------|
E|------------------------|-----------------------------|


E|-7-7-7-----7-7-7-----5-5-5-----5-5-5-----5-5-5-----5-5-5-
                                                -3-3-3---3-3-3-
B|------8-8-8-----8-8-8-----7-7-7-----7-7-7-----5-5=5-----

5-5-5----5-5-5-----5-5-5
Играть два раза

E|-7-7-7-8-10-10-8-7----8-8-7-------7-7-7---|
H7,
желательно с баре и это тоже играть два раза.

     A
     Am
С причала рыбачил апостол Андрей
     Hm
     F
А спаситель ходил по воде
     Dm
И Андрей доставал из воды пескарей
     E7
А спаситель погибших людей.
     Am
И Андрей закричал: 'Я покину причал
      Dm
Если ты не откроешь секрет...'
     F
И спаситель ответил: 'Спокойно Андрей,
    E7
Никакого секрета здесь нет..'

Припев:

 Am
Видишь там на горе возвышается крест
     G
Под ним десяток солдат
 G
Повиси-ка на нем, а когда надоест
Am
Возвращайся назад
  F
Гулять по воде
  C
Гулять по воде
  E7
Гулять по воде со мной

Но учитель на касках блистают рога
Черный ворон кружит над крестом
Об'ясни мне сейчас, пожалей дурака
А распятье оставь на потом
Онемел спаситель и топнул в сердцах
По водной глади ногой
Ты и верно дурак и Андрей в слезах
Побрел с пескарями домой

Припев.

E|-7-7-7--------7-7-7---7----|-5-5-5-------5-5-5---5----|
B|-8-----8-8-8--------8---8--|-7-----7-7-7-------7---7--|
G|-9-------------------------|-7------------------------|
D|-9-------------------------|-7------------------------|
A|---------------------------|--------------------------|
E|---------------------------|--------------------------|

E|-5-5-5--------5-5-5---5----|-3-3-3-3-2-0-3------------|
B|-5-----5-5-5--------5---5--|-5------------------------|
G|-5-------------------------|-4------------------------|
D|-7-------------------------|-5------------------------|
A|---------------------------|--------------------------|
E|---------------------------|--------------------------|

повторить 2 раза

E|-7-7-8-10-10-8p7-----------|-8-8-7--------------------|
B|-8---------------10--------|-------10-----------------|
G|-7-------------------------|----------9---------------|
D|-9-------------------------|--------------------------|
A|---------------------------|--------------------------|
E|---------------------------|--------------------------|

E|---7---7---5---5-----------|---5---5-7-8-7-5----------|
B|-8---8---7---7-------------|-5---5--------------------|
G|---------------------------|--------------------------|
D|---------------------------|--------------------------|
A|---------------------------|--------------------------|
E|---------------------------|--------------------------|

E|-7-7-8-10-10-8p7-----------|-8-8-7--------------------|
B|-8---------------10--------|-------10-----------------|
G|-7-------------------------|----------9---------------|
D|-9-------------------------|--------------------------|
A|---------------------------|--------------------------|
E|---------------------------|--------------------------|

E|------------------------|---5---5-7-8-7-8-11-10-11-14-|
B|---8---8---8---8--------|-5---5-----------------------|
G|-9---9---7---7----------|-----------------------------|
D|------------------------|-----------------------------|
A|------------------------|-----------------------------|
E|------------------------|-----------------------------|
Добавлено: 04.10.2013
Другие материалы по этой песне:
  • Аккорды и текст

Страница создана 04.10.2013
http://primanota.ru/nautilus-pompilius/progulki-po-vode-2-3-i-4-varianty-chords.htm
Привет, Гость.
Предлагаем пройти революционный курс по гитаре.
Подарок от PrimaNota.Ru, забирай!